  0
SECTION
  2
HEADER
  9
$ACADVER
  1
AC1021
  9
$ACADMAINTVER
 70
    25
  9
$DWGCODEPAGE
  3
ANSI_1252
  9
$COMMENTS
  1
File was created by SpaceClaim
  9
$INSBASE
 10
0.0
 20
0.0
 30
0.0
  9
$EXTMIN
 10
-29.25306273130287
 20
-83.24237620933793
 30
-30.17272607544245
  9
$EXTMAX
 10
20.7137192288862
 20
0.0000000000000056
 30
48.66019252086943
  9
$LIMMIN
 10
0.0
 20
0.0
  9
$LIMMAX
 10
420.0
 20
297.0
  9
$ORTHOMODE
 70
     0
  9
$REGENMODE
 70
     1
  9
$FILLMODE
 70
     1
  9
$QTEXTMODE
 70
     0
  9
$MIRRTEXT
 70
     1
  9
$LTSCALE
 40
1.0
  9
$ATTMODE
 70
     1
  9
$TEXTSIZE
 40
2.5
  9
$TRACEWID
 40
1.0
  9
$TEXTSTYLE
  7
Standard
  9
$CLAYER
  8
0
  9
$CELTYPE
  6
ByLayer
  9
$CECOLOR
 62
   256
  9
$CELTSCALE
 40
1.0
  9
$DISPSILH
 70
     0
  9
$DIMSCALE
 40
1.0
  9
$DIMASZ
 40
2.5
  9
$DIMEXO
 40
0.625
  9
$DIMDLI
 40
3.75
  9
$DIMRND
 40
0.0
  9
$DIMDLE
 40
0.0
  9
$DIMEXE
 40
1.25
  9
$DIMTP
 40
0.0
  9
$DIMTM
 40
0.0
  9
$DIMTXT
 40
2.5
  9
$DIMCEN
 40
2.5
  9
$DIMTSZ
 40
0.0
  9
$DIMTOL
 70
     0
  9
$DIMLIM
 70
     0
  9
$DIMTIH
 70
     1
  9
$DIMTOH
 70
     0
  9
$DIMSE1
 70
     0
  9
$DIMSE2
 70
     0
  9
$DIMTAD
 70
     1
  9
$DIMZIN
 70
     8
  9
$DIMBLK
  1

  9
$DIMASO
 70
     1
  9
$DIMSHO
 70
     1
  9
$DIMPOST
  1
mm
  9
$DIMAPOST
  1

  9
$DIMALT
 70
     0
  9
$DIMALTD
 70
     3
  9
$DIMALTF
 40
0.0393700787401575
  9
$DIMLFAC
 40
1.0
  9
$DIMTOFL
 70
     1
  9
$DIMTVP
 40
0.0
  9
$DIMTIX
 70
     0
  9
$DIMSOXD
 70
     0
  9
$DIMSAH
 70
     0
  9
$DIMBLK1
  1

  9
$DIMBLK2
  1

  9
$DIMSTYLE
  2
ISO-25
  9
$DIMCLRD
 70
     0
  9
$DIMCLRE
 70
     0
  9
$DIMCLRT
 70
     0
  9
$DIMTFAC
 40
1.0
  9
$DIMGAP
 40
0.625
  9
$DIMJUST
 70
     0
  9
$DIMSD1
 70
     0
  9
$DIMSD2
 70
     0
  9
$DIMTOLJ
 70
     0
  9
$DIMTZIN
 70
     8
  9
$DIMALTZ
 70
     0
  9
$DIMALTTZ
 70
     8
  9
$DIMUPT
 70
     0
  9
$DIMDEC
 70
     2
  9
$DIMTDEC
 70
     2
  9
$DIMALTU
 70
     2
  9
$DIMALTTD
 70
     3
  9
$DIMTXSTY
  7
Standard
  9
$DIMAUNIT
 70
     0
  9
$DIMADEC
 70
     1
  9
$DIMALTRND
 40
0.0
  9
$DIMAZIN
 70
     0
  9
$DIMDSEP
 70
    46
  9
$DIMATFIT
 70
     3
  9
$DIMFRAC
 70
     0
  9
$DIMLDRBLK
  1

  9
$DIMLUNIT
 70
     2
  9
$DIMLWD
 70
    -2
  9
$DIMLWE
 70
    -2
  9
$DIMTMOVE
 70
     0
  9
$DIMFXL
 40
1.0
  9
$DIMFXLON
 70
     0
  9
$DIMJOGANG
 40
0.7853981633974483
  9
$DIMTFILL
 70
     0
  9
$DIMTFILLCLR
 70
     0
  9
$DIMARCSYM
 70
     0
  9
$DIMLTYPE
  6

  9
$DIMLTEX1
  6

  9
$DIMLTEX2
  6

  9
$LUNITS
 70
     2
  9
$LUPREC
 70
     4
  9
$SKETCHINC
 40
1.0
  9
$FILLETRAD
 40
10.0
  9
$AUNITS
 70
     0
  9
$AUPREC
 70
     0
  9
$MENU
  1
.
  9
$ELEVATION
 40
0.0
  9
$PELEVATION
 40
0.0
  9
$THICKNESS
 40
0.0
  9
$LIMCHECK
 70
     0
  9
$CHAMFERA
 40
0.0
  9
$CHAMFERB
 40
0.0
  9
$CHAMFERC
 40
0.0
  9
$CHAMFERD
 40
0.0
  9
$SKPOLY
 70
     0
  9
$TDCREATE
 40
2459786.628122905
  9
$TDUCREATE
 40
2459786.919789572
  9
$TDUPDATE
 40
2459786.628123646
  9
$TDUUPDATE
 40
2459786.919790313
  9
$TDINDWG
 40
0.0000000116
  9
$TDUSRTIMER
 40
0.0000000116
  9
$USRTIMER
 70
     1
  9
$ANGBASE
 50
0.0
  9
$ANGDIR
 70
     0
  9
$PDMODE
 70
     0
  9
$PDSIZE
 40
0.0
  9
$PLINEWID
 40
0.0
  9
$SPLFRAME
 70
     0
  9
$SPLINETYPE
 70
     6
  9
$SPLINESEGS
 70
     8
  9
$HANDSEED
  5
247
  9
$SURFTAB1
 70
     6
  9
$SURFTAB2
 70
     6
  9
$SURFTYPE
 70
     6
  9
$SURFU
 70
     6
  9
$SURFV
 70
     6
  9
$UCSBASE
  2

  9
$UCSNAME
  2

  9
$UCSORG
 10
0.0
 20
0.0
 30
0.0
  9
$UCSXDIR
 10
1.0
 20
0.0
 30
0.0
  9
$UCSYDIR
 10
0.0
 20
1.0
 30
0.0
  9
$UCSORTHOREF
  2

  9
$UCSORTHOVIEW
 70
     0
  9
$UCSORGTOP
 10
0.0
 20
0.0
 30
0.0
  9
$UCSORGBOTTOM
 10
0.0
 20
0.0
 30
0.0
  9
$UCSORGLEFT
 10
0.0
 20
0.0
 30
0.0
  9
$UCSORGRIGHT
 10
0.0
 20
0.0
 30
0.0
  9
$UCSORGFRONT
 10
0.0
 20
0.0
 30
0.0
  9
$UCSORGBACK
 10
0.0
 20
0.0
 30
0.0
  9
$PUCSBASE
  2

  9
$PUCSNAME
  2

  9
$PUCSORG
 10
0.0
 20
0.0
 30
0.0
  9
$PUCSXDIR
 10
1.0
 20
0.0
 30
0.0
  9
$PUCSYDIR
 10
0.0
 20
1.0
 30
0.0
  9
$PUCSORTHOREF
  2

  9
$PUCSORTHOVIEW
 70
     0
  9
$PUCSORGTOP
 10
0.0
 20
0.0
 30
0.0
  9
$PUCSORGBOTTOM
 10
0.0
 20
0.0
 30
0.0
  9
$PUCSORGLEFT
 10
0.0
 20
0.0
 30
0.0
  9
$PUCSORGRIGHT
 10
0.0
 20
0.0
 30
0.0
  9
$PUCSORGFRONT
 10
0.0
 20
0.0
 30
0.0
  9
$PUCSORGBACK
 10
0.0
 20
0.0
 30
0.0
  9
$USERI1
 70
     0
  9
$USERI2
 70
     0
  9
$USERI3
 70
     0
  9
$USERI4
 70
     0
  9
$USERI5
 70
     0
  9
$USERR1
 40
0.0
  9
$USERR2
 40
0.0
  9
$USERR3
 40
0.0
  9
$USERR4
 40
0.0
  9
$USERR5
 40
0.0
  9
$WORLDVIEW
 70
     1
  9
$SHADEDGE
 70
     3
  9
$SHADEDIF
 70
    70
  9
$TILEMODE
 70
     1
  9
$MAXACTVP
 70
    64
  9
$PINSBASE
 10
0.0
 20
0.0
 30
0.0
  9
$PLIMCHECK
 70
     0
  9
$PEXTMIN
 10
1.000000000000000E+20
 20
1.000000000000000E+20
 30
1.000000000000000E+20
  9
$PEXTMAX
 10
-1.000000000000000E+20
 20
-1.000000000000000E+20
 30
-1.000000000000000E+20
  9
$PLIMMIN
 10
0.0
 20
0.0
  9
$PLIMMAX
 10
420.0
 20
297.0
  9
$UNITMODE
 70
     0
  9
$VISRETAIN
 70
     1
  9
$PLINEGEN
 70
     0
  9
$PSLTSCALE
 70
     1
  9
$TREEDEPTH
 70
  3020
  9
$CMLSTYLE
  2
Standard
  9
$CMLJUST
 70
     0
  9
$CMLSCALE
 40
20.0
  9
$PROXYGRAPHICS
 70
     1
  9
$MEASUREMENT
 70
     1
  9
$CELWEIGHT
370
    -1
  9
$ENDCAPS
280
     0
  9
$JOINSTYLE
280
     0
  9
$LWDISPLAY
290
     0
  9
$INSUNITS
 70
     4
  9
$HYPERLINKBASE
  1

  9
$STYLESHEET
  1

  9
$XEDIT
290
     1
  9
$CEPSNTYPE
380
     0
  9
$PSTYLEMODE
290
     1
  9
$FINGERPRINTGUID
  2
{d0bcf444-0c61-4363-8fa9-83537bdfbbef}
  9
$VERSIONGUID
  2
{FAEB1C32-E019-11D5-929B-00C0DF256EC4}
  9
$EXTNAMES
290
     1
  9
$PSVPSCALE
 40
0.0
  9
$OLESTARTUP
290
     0
  9
$SORTENTS
280
   127
  9
$INDEXCTL
280
     0
  9
$HIDETEXT
280
     1
  9
$XCLIPFRAME
290
     0
  9
$HALOGAP
280
     0
  9
$OBSCOLOR
 70
   257
  9
$OBSLTYPE
280
     0
  9
$INTERSECTIONDISPLAY
280
     0
  9
$INTERSECTIONCOLOR
 70
   257
  9
$DIMASSOC
280
     2
  9
$PROJECTNAME
  1

  9
$CAMERADISPLAY
290
     0
  9
$LENSLENGTH
 40
50.0
  9
$CAMERAHEIGHT
 40
0.0
  9
$STEPSPERSEC
 40
2.0
  9
$STEPSIZE
 40
6.0
  9
$3DDWFPREC
 40
2.0
  9
$PSOLWIDTH
 40
5.0
  9
$PSOLHEIGHT
 40
80.0
  9
$LOFTANG1
 40
1.570796326794897
  9
$LOFTANG2
 40
1.570796326794897
  9
$LOFTMAG1
 40
0.0
  9
$LOFTMAG2
 40
0.0
  9
$LOFTPARAM
 70
     7
  9
$LOFTNORMALS
280
     1
  9
$LATITUDE
 40
37.795
  9
$LONGITUDE
 40
-122.394
  9
$NORTHDIRECTION
 40
0.0
  9
$TIMEZONE
 70
 -8000
  9
$LIGHTGLYPHDISPLAY
280
     1
  9
$TILEMODELIGHTSYNCH
280
     1
  9
$CMATERIAL
347
44
  9
$SOLIDHIST
280
     0
  9
$SHOWHIST
280
     1
  9
$DWFFRAME
280
     2
  9
$DGNFRAME
280
     2
  9
$REALWORLDSCALE
290
     1
  9
$INTERFERECOLOR
 62
   256
  9
$CSHADOW
280
     0
  9
$SHADOWPLANELOCATION
 40
0.0
  0
ENDSEC
  0
SECTION
  2
CLASSES
  0
CLASS
  1
ACDBDICTIONARYWDFLT
  2
AcDbDictionaryWithDefault
  3
ObjectDBX Classes
 90
        0
 91
        3
280
     0
281
     0
  0
CLASS
  1
VISUALSTYLE
  2
AcDbVisualStyle
  3
ObjectDBX Classes
 90
     4095
 91
        3
280
     0
281
     0
  0
CLASS
  1
MATERIAL
  2
AcDbMaterial
  3
ObjectDBX Classes
 90
     1153
 91
        3
280
     0
281
     0
  0
CLASS
  1
SCALE
  2
AcDbScale
  3
ObjectDBX Classes
 90
     1153
 91
        3
280
     0
281
     0
  0
CLASS
  1
TABLESTYLE
  2
AcDbTableStyle
  3
ObjectDBX Classes
 90
     4095
 91
        3
280
     0
281
     0
  0
CLASS
  1
MLEADERSTYLE
  2
AcDbMLeaderStyle
  3
ACDB_MLEADERSTYLE_CLASS
 90
     4095
 91
        3
280
     0
281
     0
  0
CLASS
  1
SUN
  2
AcDbSun
  3
SCENEOE
 90
     1153
 91
        3
280
     0
281
     0
  0
CLASS
  1
DICTIONARYVAR
  2
AcDbDictionaryVar
  3
ObjectDBX Classes
 90
        0
 91
        3
280
     0
281
     0
  0
CLASS
  1
CELLSTYLEMAP
  2
AcDbCellStyleMap
  3
ObjectDBX Classes
 90
     1152
 91
        3
280
     0
281
     0
  0
ENDSEC
  0
SECTION
  2
TABLES
  0
TABLE
  2
VPORT
  5
8
330
0
100
AcDbSymbolTable
 70
     1
  0
VPORT
  5
29
330
8
100
AcDbSymbolTableRecord
100
AcDbViewportTableRecord
  2
*Active
 70
     0
 10
0.0
 20
0.0
 11
1.0
 21
1.0
 12
-4.269671751208332
 22
-41.62118810466897
 13
0.0
 23
0.0
 14
10.0
 24
10.0
 15
10.0
 25
10.0
 16
0.0
 26
0.0
 36
1.0
 17
0.0
 27
0.0
 37
0.0
 40
83.24237620933793
 41
0.6002565548409214
 42
50.0
 43
0.0
 44
0.0
 50
0.0
 51
0.0
 71
     0
 72
   100
 73
     1
 74
     3
 75
     0
 76
     0
 77
     0
 78
     0
281
     0
 65
     1
110
0.0
120
0.0
130
0.0
111
1.0
121
0.0
131
0.0
112
0.0
122
1.0
132
0.0
 79
     0
146
0.0
348
2F
 60
     3
 61
     5
292
     1
282
     1
141
0.0
142
0.0
 63
   250
361
6D
  0
ENDTAB
  0
TABLE
  2
LTYPE
  5
5
330
0
100
AcDbSymbolTable
 70
     2
  0
LTYPE
  5
14
330
5
100
AcDbSymbolTableRecord
100
AcDbLinetypeTableRecord
  2
ByBlock
 70
     0
  3

 72
    65
 73
     0
 40
0.0
  0
LTYPE
  5
15
330
5
100
AcDbSymbolTableRecord
100
AcDbLinetypeTableRecord
  2
ByLayer
 70
     0
  3

 72
    65
 73
     0
 40
0.0
  0
LTYPE
  5
16
330
5
100
AcDbSymbolTableRecord
100
AcDbLinetypeTableRecord
  2
Continuous
 70
     0
  3
Solid line
 72
    65
 73
     0
 40
0.0
  0
LTYPE
  5
C9
330
5
100
AcDbSymbolTableRecord
100
AcDbLinetypeTableRecord
  2
HIDDEN
 70
     0
  3
- - - - - - - - - - - - - - - - - - - - -
 72
    65
 73
     2
 40
9.524999999999999
 49
6.35
 74
     0
 49
-3.175
 74
     0
  0
ENDTAB
  0
TABLE
  2
LAYER
  5
2
330
0
100
AcDbSymbolTable
 70
     2
  0
LAYER
  5
10
330
2
100
AcDbSymbolTableRecord
100
AcDbLayerTableRecord
  2
0
 70
     0
 62
   253
420
  9416591
  6
Continuous
370
    70
390
F
347
46
  0
LAYER
  5
C8
330
2
100
AcDbSymbolTableRecord
100
AcDbLayerTableRecord
  2
Hidden
 70
     0
 62
    98
420
   346117
  6
HIDDEN
370
    70
390
F
347
46
  0
ENDTAB
  0
TABLE
  2
STYLE
  5
3
330
0
100
AcDbSymbolTable
 70
     1
  0
STYLE
  5
11
330
3
100
AcDbSymbolTableRecord
100
AcDbTextStyleTableRecord
  2
Standard
 70
     0
 40
0.0
 41
1.0
 50
0.0
 71
     0
 42
2.5
  3
txt
  4

  0
ENDTAB
  0
TABLE
  2
VIEW
  5
6
330
0
100
AcDbSymbolTable
 70
     0
  0
ENDTAB
  0
TABLE
  2
UCS
  5
7
330
0
100
AcDbSymbolTable
 70
     0
  0
ENDTAB
  0
TABLE
  2
APPID
  5
9
330
0
100
AcDbSymbolTable
 70
     2
  0
APPID
  5
12
330
9
100
AcDbSymbolTableRecord
100
AcDbRegAppTableRecord
  2
ACAD
 70
     0
  0
APPID
  5
23D
330
9
100
AcDbSymbolTableRecord
100
AcDbRegAppTableRecord
  2
ACAD_MLEADERVER
 70
     0
  0
ENDTAB
  0
TABLE
  2
DIMSTYLE
  5
A
330
0
100
AcDbSymbolTable
 70
     1
100
AcDbDimStyleTable
  0
DIMSTYLE
105
27
330
A
100
AcDbSymbolTableRecord
100
AcDbDimStyleTableRecord
  2
ISO-25
 70
     0
 41
2.5
 42
0.625
 43
3.75
 44
1.25
 73
     0
 74
     0
 77
     1
 78
     8
140
2.5
141
2.5
143
0.03937007874016
147
0.625
171
     3
172
     1
178
     0
271
     2
272
     2
274
     3
278
    44
283
     0
284
     8
340
11
  0
ENDTAB
  0
TABLE
  2
BLOCK_RECORD
  5
1
330
0
100
AcDbSymbolTable
 70
     1
  0
BLOCK_RECORD
  5
1F
330
1
100
AcDbSymbolTableRecord
100
AcDbBlockTableRecord
  2
*Model_Space
340
22
 70
     0
280
     1
281
     0
  0
BLOCK_RECORD
  5
1B
330
1
100
AcDbSymbolTableRecord
100
AcDbBlockTableRecord
  2
*Paper_Space
340
1E
 70
     0
280
     1
281
     0
  0
BLOCK_RECORD
  5
23
330
1
100
AcDbSymbolTableRecord
100
AcDbBlockTableRecord
  2
*Paper_Space0
340
26
 70
     0
280
     1
281
     0
  0
ENDTAB
  0
ENDSEC
  0
SECTION
  2
BLOCKS
  0
BLOCK
  5
20
330
1F
100
AcDbEntity
  8
0
100
AcDbBlockBegin
  2
*Model_Space
 70
     0
 10
0.0
 20
0.0
 30
0.0
  3
*Model_Space
  1

  0
ENDBLK
  5
21
330
1F
100
AcDbEntity
  8
0
100
AcDbBlockEnd
  0
BLOCK
  5
1C
330
1B
100
AcDbEntity
 67
     1
  8
0
100
AcDbBlockBegin
  2
*Paper_Space
 70
     0
 10
0.0
 20
0.0
 30
0.0
  3
*Paper_Space
  1

  0
ENDBLK
  5
1D
330
1B
100
AcDbEntity
 67
     1
  8
0
100
AcDbBlockEnd
  0
BLOCK
  5
24
330
23
100
AcDbEntity
  8
0
100
AcDbBlockBegin
  2
*Paper_Space0
 70
     0
 10
0.0
 20
0.0
 30
0.0
  3
*Paper_Space0
  1

  0
ENDBLK
  5
25
330
23
100
AcDbEntity
  8
0
100
AcDbBlockEnd
  0
ENDSEC
  0
SECTION
  2
ENTITIES
  0
ELLIPSE
  5
6E
330
1F
100
AcDbEntity
  8
0
 62
    98
420
   346117
370
    -3
100
AcDbEllipse
 10
-16.92542067082838
 20
-71.44093221356616
 30
-0.0000000000000043
 11
-1.12706168768274
 21
-2.994951076755301
 31
0.0
210
0.0
220
0.0
230
1.0
 40
0.4054162512521066
 41
3.53830306892766
 42
4.927294032326351
  0
LINE
  5
6F
330
1F
100
AcDbEntity
  8
0
 62
    98
420
   346117
370
    -3
100
AcDbLine
 10
-18.35204295823103
 20
-71.63320128082974
 30
-0.0000000000000048
 11
-15.98031626918705
 21
-72.52573081348979
 31
-0.0000000000000001
  0
ELLIPSE
  5
70
330
1F
100
AcDbEntity
  8
0
 62
    98
420
   346117
370
    -3
100
AcDbEllipse
 10
-16.92542067082838
 20
-71.44093221356616
 30
-0.0000000000000043
 11
-1.12706168768274
 21
-2.994951076755301
 31
0.0
210
0.0
220
0.0
230
1.0
 40
0.4054162512521066
 41
0.396706316065123
 42
1.785701378736527
  0
ELLIPSE
  5
71
330
1F
100
AcDbEntity
  8
0
 62
    98
420
   346117
370
    -3
100
AcDbEllipse
 10
-25.28305248180099
 20
-44.63144107022942
 30
-0.0000000000000004
 11
1.12706168768274
 21
2.994951076755301
 31
0.0
210
0.0
220
0.0
230
-1.0
 40
0.4054162512521066
 41
4.49748090318117
 42
5.886475965852571
  0
LINE
  5
72
330
1F
100
AcDbEntity
  8
0
 62
    98
420
   346117
370
    -3
100
AcDbLine
 10
-26.70967731707659
 20
-44.82371928436982
 30
-0.0000000000000009
 11
-24.33795222482976
 21
-45.71624821612225
 31
0.0
  0
ELLIPSE
  5
73
330
1F
100
AcDbEntity
  8
0
 62
    98
420
   346117
370
    -3
100
AcDbEllipse
 10
-25.28305248180099
 20
-44.63144107022942
 30
-0.0000000000000004
 11
1.12706168768274
 21
2.994951076755301
 31
0.0
210
0.0
220
0.0
230
-1.0
 40
0.4054162512521066
 41
1.355892348864122
 42
2.744883312262806
  0
ELLIPSE
  5
74
330
1F
100
AcDbEntity
  8
0
 62
    98
420
   346117
370
    -3
100
AcDbEllipse
 10
2.298213608727603
 20
-21.34262692873126
 30
-0.0000000000000013
 11
-1.127061687682741
 21
-2.994951076755302
 31
0.0
210
0.0
220
0.0
230
1.0
 40
0.4054162512521066
 41
0.3967093413014492
 42
1.785700304725676
  0
ELLIPSE
  5
75
330
1F
100
AcDbEntity
  8
0
 62
    98
420
   346117
370
    -3
100
AcDbEllipse
 10
2.298213608727603
 20
-21.34262692873126
 30
-0.0000000000000013
 11
-1.127061687682741
 21
-2.994951076755302
 31
0.0
210
0.0
220
0.0
230
1.0
 40
0.4054162512521066
 41
3.538303068927659
 42
4.927294032351888
  0
LINE
  5
76
330
1F
100
AcDbEntity
  8
0
 62
    98
420
   346117
370
    -3
100
AcDbLine
 10
0.8715913213033925
 20
-21.53489599607224
 30
-0.0000000000000004
 11
3.243318015090718
 21
-22.42742553051731
 31
-0.0000000000000009
  0
LINE
  5
77
330
1F
100
AcDbEntity
  8
0
 62
    98
420
   346117
370
    -3
100
AcDbLine
 10
14.90650662677372
 20
-27.32559921134237
 30
-0.0000000000000017
 11
13.31685421412119
 21
-28.18274139722729
 31
-0.0000000000000013
  0
LINE
  5
78
330
1F
100
AcDbEntity
  8
0
 62
    98
420
   346117
370
    -3
100
AcDbLine
 10
10.69921024522905
 20
-25.74230705099247
 30
0.0000000000000017
 11
13.3168542141212
 21
-28.18274139722729
 31
0.0000000000000005
  0
LINE
  5
79
330
1F
100
AcDbEntity
  8
0
 62
    98
420
   346117
370
    -3
100
AcDbLine
 10
9.98602850756488
 20
-23.45457292822404
 30
0.0
 11
9.65439753681305
 21
-23.97454928675915
 31
0.0
  0
ELLIPSE
  5
7A
330
1F
100
AcDbEntity
  8
0
 62
    98
420
   346117
370
    -3
100
AcDbEllipse
 10
12.44626756718626
 20
-25.39008606977406
 30
-0.0000000000000017
 11
2.69798349843915
 21
-1.72072224433522
 31
0.0
210
-1.492488636441904E-17
220
-2.340127656270215E-17
230
-1.0
 40
0.4217955176736195
 41
1.983534298533627
 42
3.372524187870212
  0
LINE
  5
7B
330
1F
100
AcDbEntity
  8
0
 62
    98
420
   346117
370
    -3
100
AcDbLine
 10
11.57568092014181
 20
-22.59743074227963
 30
0.0
 11
10.04192170953194
 21
-25.00226804500374
 31
-0.0000000000000021
  0
LINE
  5
7C
330
1F
100
AcDbEntity
  8
0
 62
    98
420
   346117
370
    -3
100
AcDbLine
 10
9.98602850756488
 20
-23.45457292822404
 30
0.0
 11
11.5756809201418
 21
-22.59743074227964
 31
-0.0000000000000003
  0
LINE
  5
7D
330
1F
100
AcDbEntity
  8
0
 62
    98
420
   346117
370
    -3
100
AcDbLine
 10
14.19332488908764
 20
-25.03786508850363
 30
0.0000000000000017
 11
12.60867470481009
 21
-27.52249621479625
 31
-0.0000000000000006
  0
LINE
  5
7E
330
1F
100
AcDbEntity
  8
0
 62
    98
420
   346117
370
    -3
100
AcDbLine
 10
14.19332488908764
 20
-25.03786508850363
 30
0.0000000000000017
 11
11.57568092014181
 21
-22.59743074227963
 31
0.0000000000000005
  0
ELLIPSE
  5
7F
330
1F
100
AcDbEntity
  8
0
 62
    98
420
   346117
370
    -3
100
AcDbEllipse
 10
12.44626756718626
 20
-25.39008606977406
 30
-0.0000000000000017
 11
2.69798349843915
 21
-1.72072224433522
 31
0.0
210
-1.492488636441904E-17
220
-2.340127656270215E-17
230
-1.0
 40
0.4217955176736195
 41
5.125126952097821
 42
6.514116841485616
  0
LINE
  5
80
330
1F
100
AcDbEntity
  8
0
 62
    98
420
   346117
370
    -3
100
AcDbLine
 10
10.72769072128743
 20
-13.92085363967401
 30
0.0
 11
9.13803830863489
 21
-14.77799582555893
 31
-0.0000000000000002
  0
LINE
  5
81
330
1F
100
AcDbEntity
  8
0
 62
    98
420
   346117
370
    -3
100
AcDbLine
 10
6.520394339742742
 20
-12.33756147932411
 30
0.0
 11
9.138038308634888
 21
-14.77799582555892
 31
-0.000000000000001
  0
LINE
  5
82
330
1F
100
AcDbEntity
  8
0
 62
    98
420
   346117
370
    -3
100
AcDbLine
 10
5.807212602078577
 20
-10.04982735655567
 30
-0.0000000000000004
 11
5.475581631326753
 21
-10.56980371509077
 31
-0.0000000000000011
  0
ELLIPSE
  5
83
330
1F
100
AcDbEntity
  8
0
 62
    98
420
   346117
370
    -3
100
AcDbEllipse
 10
8.267451661699948
 20
-11.9853404981057
 30
-0.0000000000000009
 11
-2.69798349843915
 21
1.72072224433522
 31
0.0
210
1.492488636441904E-17
220
2.340127656270215E-17
230
1.0
 40
0.4217955176736195
 41
6.052253772899152
 42
7.441243662235745
  0
LINE
  5
84
330
1F
100
AcDbEntity
  8
0
 62
    98
420
   346117
370
    -3
100
AcDbLine
 10
7.396865014655499
 20
-9.192685170611265
 30
0.0
 11
5.863311418689546
 21
-11.59720008259618
 31
0.0
  0
LINE
  5
85
330
1F
100
AcDbEntity
  8
0
 62
    98
420
   346117
370
    -3
100
AcDbLine
 10
5.807212602078577
 20
-10.04982735655567
 30
-0.0000000000000004
 11
7.396865014655499
 21
-9.192685170611266
 31
-0.0000000000000001
  0
LINE
  5
86
330
1F
100
AcDbEntity
  8
0
 62
    98
420
   346117
370
    -3
100
AcDbLine
 10
10.01450898360133
 20
-11.63311951683526
 30
-0.0000000000000009
 11
8.429858799323785
 21
-14.11775064312789
 31
0.0000000000000004
  0
LINE
  5
87
330
1F
100
AcDbEntity
  8
0
 62
    98
420
   346117
370
    -3
100
AcDbLine
 10
10.01450898360133
 20
-11.63311951683526
 30
-0.0000000000000009
 11
7.3968650146555
 21
-9.192685170611266
 31
0.0000000000000003
  0
ELLIPSE
  5
88
330
1F
100
AcDbEntity
  8
0
 62
    98
420
   346117
370
    -3
100
AcDbEllipse
 10
8.267451661699948
 20
-11.9853404981057
 30
-0.0000000000000009
 11
-2.69798349843915
 21
1.72072224433522
 31
0.0
210
1.492488636441904E-17
220
2.340127656270215E-17
230
1.0
 40
0.4217955176736195
 41
2.910661119283759
 42
4.299651008671557
  0
LINE
  5
89
330
1F
100
AcDbEntity
  8
0
 62
    98
420
   346117
370
    -3
100
AcDbLine
 10
10.44703976371577
 20
-33.5118639291709
 30
0.0000000000000017
 11
20.7137192288862
 21
-37.37542656787979
 31
0.0000000000000017
  0
LINE
  5
8A
330
1F
100
AcDbEntity
  8
0
 62
    98
420
   346117
370
    -3
100
AcDbLine
 10
20.7137192288862
 20
-37.37542656787978
 30
0.0000000000000017
 11
10.26667946517043
 21
-3.863562638708879
 31
0.0000000000000008
  0
LINE
  5
8B
330
1F
100
AcDbEntity
  8
0
 62
    98
420
   346117
370
    -3
100
AcDbLine
 10
0.0000000000000048
 20
0.0000000000000056
 30
0.0
 11
10.26667946517043
 21
-3.863562638708877
 31
0.0
  0
LINE
  5
8C
330
1F
100
AcDbEntity
  8
0
 62
    98
420
   346117
370
    -3
100
AcDbLine
 10
0.0000000000000048
 20
0.0000000000000056
 30
0.0
 11
10.44703976371577
 21
-33.51186392917089
 31
0.0000000000000019
  0
LINE
  5
8D
330
1F
100
AcDbEntity
  8
0
 62
    98
420
   346117
370
    -3
100
AcDbLine
 10
-18.80602296758708
 20
-79.37881357062906
 30
-0.0000000000000043
 11
-8.539343502416655
 21
-83.24237620933793
 31
-0.0000000000000007
  0
LINE
  5
8E
330
1F
100
AcDbEntity
  8
0
 62
    98
420
   346117
370
    -3
100
AcDbLine
 10
-18.80602296758708
 20
-79.37881357062906
 30
-0.0000000000000043
 11
-29.25306273130285
 21
-45.86694964145815
 31
-0.0000000000000024
  0
LINE
  5
8F
330
1F
100
AcDbEntity
  8
0
 62
    98
420
   346117
370
    -3
100
AcDbLine
 10
-29.25306273130285
 20
-45.86694964145814
 30
0.0
 11
0.0000000000000104
 21
0.0000000000000139
 31
0.0000000000000038
  0
LINE
  5
90
330
1F
100
AcDbEntity
  8
0
 62
    98
420
   346117
370
    -3
100
AcDbLine
 10
-6.00189994940808
 20
-65.19327327629304
 30
-0.0000000000000017
 11
-2.459009187910225
 21
-63.72826419405308
 31
0.0000000000000002
  0
LINE
  5
91
330
1F
100
AcDbEntity
  8
0
 62
    98
420
   346117
370
    -3
100
AcDbLine
 10
-1.794615879586296
 20
-66.77656945299532
 30
0.0000000000000017
 11
-2.712255876838822
 21
-63.83297706515952
 31
-0.0000000000000005
  0
LINE
  5
92
330
1F
100
AcDbEntity
  8
0
 62
    98
420
   346117
370
    -3
100
AcDbLine
 10
-1.794615879586296
 20
-66.77656945299532
 30
0.0000000000000017
 11
-2.459009188005568
 21
-63.72826419407686
 31
-0.0000000000000049
  0
LINE
  5
93
330
1F
100
AcDbEntity
  8
0
 62
    98
420
   346117
370
    -3
100
AcDbLine
 10
-3.791616784987465
 20
-69.90774171666553
 30
-0.0000000000000017
 11
-5.345881276374942
 21
-64.92199443098723
 31
-0.0000000000000061
  0
ELLIPSE
  5
94
330
1F
100
AcDbEntity
  8
0
 62
    98
420
   346117
370
    -3
100
AcDbEllipse
 10
-4.896764415611014
 20
-67.55050999754604
 30
-0.0000000000000035
 11
-3.054994878316792
 21
-0.9523687801782368
 31
0.0
210
0.0
220
0.0
230
-1.0
 40
0.811003208681157
 41
3.212697498859634
 42
4.601687776480919
  0
LINE
  5
95
330
1F
100
AcDbEntity
  8
0
 62
    98
420
   346117
370
    -3
100
AcDbLine
 10
-3.791616784987465
 20
-69.90774171666553
 30
-0.0000000000000017
 11
-7.334519643311797
 21
-71.37275580103903
 31
-0.0000000000000009
  0
LINE
  5
96
330
1F
100
AcDbEntity
  8
0
 62
    98
420
   346117
370
    -3
100
AcDbLine
 10
-7.998912572125033
 20
-68.32445228335783
 30
-0.0000000000000052
 11
-7.334519643216455
 21
-71.37275580101524
 31
-0.0000000000000044
  0
ELLIPSE
  5
97
330
1F
100
AcDbEntity
  8
0
 62
    98
420
   346117
370
    -3
100
AcDbEllipse
 10
-4.896764415611014
 20
-67.55050999754604
 30
-0.0000000000000035
 11
-3.054994878316792
 21
-0.9523687801782368
 31
0.0
210
0.0
220
0.0
230
-1.0
 40
0.811003208681157
 41
0.0711041594669015
 42
1.460099222163867
  0
LINE
  5
98
330
1F
100
AcDbEntity
  8
0
 62
    98
420
   346117
370
    -3
100
AcDbLine
 10
5.699316215732887
 20
-46.84649711124758
 30
0.0000000000000017
 11
9.242215904535382
 21
-45.38148433750104
 31
-0.0000000000000036
  0
LINE
  5
99
330
1F
100
AcDbEntity
  8
0
 62
    98
420
   346117
370
    -3
100
AcDbLine
 10
9.906609427775447
 20
-48.42979058214116
 30
0.0
 11
8.988969133764474
 21
-45.48619724236791
 31
-0.0000000000000015
  0
LINE
  5
9A
330
1F
100
AcDbEntity
  8
0
 62
    98
420
   346117
370
    -3
100
AcDbLine
 10
9.906609427775447
 20
-48.42979058214116
 30
0.0
 11
9.242215904501409
 21
-45.38148433742859
 31
0.0000000000000004
  0
LINE
  5
9B
330
1F
100
AcDbEntity
  8
0
 62
    98
420
   346117
370
    -3
100
AcDbLine
 10
7.909607161869539
 20
-51.56096233382549
 30
-0.0000000000000035
 11
6.355342670478101
 21
-46.5752150481345
 31
-0.000000000000004
  0
ELLIPSE
  5
9C
330
1F
100
AcDbEntity
  8
0
 62
    98
420
   346117
370
    -3
100
AcDbEllipse
 10
6.804460676910127
 20
-49.20373014096278
 30
-0.0000000000000017
 11
3.054994878316792
 21
0.9523687801782368
 31
0.0
210
0.0
220
0.0
230
1.0
 40
0.811003208681157
 41
4.823089796054985
 42
6.212080073676267
  0
LINE
  5
9D
330
1F
100
AcDbEntity
  8
0
 62
    98
420
   346117
370
    -3
100
AcDbLine
 10
7.909607161869539
 20
-51.56096233382549
 30
-0.0000000000000035
 11
4.366705449284889
 21
-53.02597594442453
 31
-0.0000000000000013
  0
LINE
  5
9E
330
1F
100
AcDbEntity
  8
0
 62
    98
420
   346117
370
    -3
100
AcDbLine
 10
3.702314194523524
 20
-49.97768010787772
 30
0.0000000000000009
 11
4.366705449318857
 21
-53.02597594449697
 31
-0.000000000000001
  0
ELLIPSE
  5
9F
330
1F
100
AcDbEntity
  8
0
 62
    98
420
   346117
370
    -3
100
AcDbEllipse
 10
6.804460676910127
 20
-49.20373014096278
 30
-0.0000000000000017
 11
3.054994878316792
 21
0.9523687801782368
 31
0.0
210
0.0
220
0.0
230
1.0
 40
0.811003208681157
 41
1.681496456662253
 42
3.070491519359218
  0
LINE
  5
A0
330
1F
100
AcDbEntity
  8
0
 62
    98
420
   346117
370
    -3
100
AcDbLine
 10
-6.298637195363637
 20
-33.92486111878041
 30
0.0000000000000009
 11
-7.852901686755077
 21
-28.93911383308942
 31
-0.0000000000000004
  0
LINE
  5
A1
330
1F
100
AcDbEntity
  8
0
 62
    98
420
   346117
370
    -3
100
AcDbLine
 10
-9.841538908023834
 20
-35.38987472941069
 30
-0.0000000000000009
 11
-6.298637195363638
 21
-33.92486111878042
 31
-0.0000000000000004
  0
LINE
  5
A2
330
1F
100
AcDbEntity
  8
0
 62
    98
420
   346117
370
    -3
100
AcDbLine
 10
-10.50593183683707
 20
-32.34157121172949
 30
0.0
 11
-9.841538907928491
 21
-35.3898747293869
 31
-0.0000000000000007
  0
ELLIPSE
  5
A3
330
1F
100
AcDbEntity
  8
0
 62
    98
420
   346117
370
    -3
100
AcDbEllipse
 10
-7.40378368032305
 20
-31.56762892591771
 30
0.0000000000000007
 11
3.054994878316792
 21
0.9523687801782368
 31
0.0
210
0.0
220
0.0
230
1.0
 40
0.811003208681157
 41
1.681496456662252
 42
3.070488494122892
  0
LINE
  5
A4
330
1F
100
AcDbEntity
  8
0
 62
    98
420
   346117
370
    -3
100
AcDbLine
 10
-4.966028452697805
 20
-27.74538312245597
 30
-0.0000000000000013
 11
-8.508928141500297
 21
-29.21039589620252
 31
-0.0000000000000009
  0
LINE
  5
A5
330
1F
100
AcDbEntity
  8
0
 62
    98
420
   346117
370
    -3
100
AcDbLine
 10
-4.301635144298329
 20
-30.79368838136696
 30
0.0
 11
-5.219275141572915
 21
-27.85009599346043
 31
-0.0000000000000017
  0
LINE
  5
A6
330
1F
100
AcDbEntity
  8
0
 62
    98
420
   346117
370
    -3
100
AcDbLine
 10
-4.30163514429833
 20
-30.79368838136696
 30
0.0000000000000009
 11
-4.966028452731774
 21
-27.74538312238353
 31
-0.0000000000000011
  0
ELLIPSE
  5
A7
330
1F
100
AcDbEntity
  8
0
 62
    98
420
   346117
370
    -3
100
AcDbEllipse
 10
-7.40378368032305
 20
-31.56762892591771
 30
0.0000000000000007
 11
3.054994878316792
 21
0.9523687801782368
 31
0.0
210
0.0
220
0.0
230
1.0
 40
0.811003208681157
 41
4.823089796054985
 42
6.212080461909746
  0
LINE
  5
A8
330
1F
100
AcDbEntity
  8
0
 62
    98
420
   346117
370
    -3
100
AcDbLine
 10
2.058994615608968
 20
-60.73435226211713
 30
0.0000000000000017
 11
0.5047301242175309
 21
-55.74860497642612
 31
-0.0000000000000028
  0
LINE
  5
A9
330
1F
100
AcDbEntity
  8
0
 62
    98
420
   346117
370
    -3
100
AcDbLine
 10
2.058994615608968
 20
-60.73435226211713
 30
0.0000000000000017
 11
-1.483907097051226
 21
-62.19936587274739
 31
0.0000000000000017
  0
LINE
  5
AA
330
1F
100
AcDbEntity
  8
0
 62
    98
420
   346117
370
    -3
100
AcDbLine
 10
-2.148300025864455
 20
-59.15106235506621
 30
-0.0000000000000009
 11
-1.483907096955882
 21
-62.19936587272361
 31
0.0000000000000007
  0
ELLIPSE
  5
AB
330
1F
100
AcDbEntity
  8
0
 62
    98
420
   346117
370
    -3
100
AcDbEllipse
 10
0.9538481306495608
 20
-58.37712006925442
 30
-0.0000000000000017
 11
3.054994878316792
 21
0.9523687801782368
 31
0.0
210
0.0
220
0.0
230
1.0
 40
0.811003208681157
 41
1.681496456662252
 42
3.070488494122892
  0
LINE
  5
AC
330
1F
100
AcDbEntity
  8
0
 62
    98
420
   346117
370
    -3
100
AcDbLine
 10
-0.1512963305276838
 20
-56.01988703953921
 30
-0.0000000000000009
 11
3.391603358274804
 21
-54.55487426579269
 31
0.0000000000000004
  0
LINE
  5
AD
330
1F
100
AcDbEntity
  8
0
 62
    98
420
   346117
370
    -3
100
AcDbLine
 10
4.055996666674277
 20
-57.60317952470367
 30
-0.0000000000000035
 11
3.138356669399699
 21
-54.65958713679713
 31
-0.0000000000000012
  0
LINE
  5
AE
330
1F
100
AcDbEntity
  8
0
 62
    98
420
   346117
370
    -3
100
AcDbLine
 10
4.055996666674277
 20
-57.60317952470367
 30
-0.0000000000000035
 11
3.391603358240835
 21
-54.55487426572024
 31
-0.0000000000000013
  0
ELLIPSE
  5
AF
330
1F
100
AcDbEntity
  8
0
 62
    98
420
   346117
370
    -3
100
AcDbEllipse
 10
0.9538481306495608
 20
-58.37712006925442
 30
-0.0000000000000017
 11
3.054994878316792
 21
0.9523687801782368
 31
0.0
210
0.0
220
0.0
230
1.0
 40
0.811003208681157
 41
4.823089796054985
 42
6.212080461909744
  0
LINE
  5
B0
330
1F
100
AcDbEntity
  8
0
 62
    98
420
   346117
370
    -3
100
AcDbLine
 10
-21.31304223229914
 20
-43.39593249900074
 30
0.0000000000000022
 11
-11.04636276712871
 21
-47.25949513770963
 31
-0.0000000000000015
  0
LINE
  5
B1
330
1F
100
AcDbEntity
  8
0
 62
    98
420
   346117
370
    -3
100
AcDbLine
 10
-11.04636276712871
 20
-47.25949513770964
 30
-0.0000000000000039
 11
0.418498420751201
 21
-29.28331891366967
 31
0.0000000000000014
  0
LINE
  5
B2
330
1F
100
AcDbEntity
  8
0
 62
    98
420
   346117
370
    -3
100
AcDbLine
 10
-3.761204593517408
 20
-15.87576271412582
 30
0.0000000000000008
 11
-21.31304223229914
 21
-43.39593249900074
 31
-0.0000000000000015
  0
LINE
  5
B3
330
1F
100
AcDbEntity
  8
0
 62
    98
420
   346117
370
    -3
100
AcDbLine
 10
-15.04481837406969
 20
-63.50305085650326
 30
-0.0000000000000013
 11
2.50701926471204
 21
-35.98288107162835
 31
0.0000000000000041
  0
LINE
  5
B4
330
1F
100
AcDbEntity
  8
0
 62
    98
420
   346117
370
    -3
100
AcDbLine
 10
-8.539343502416651
 20
-83.24237620933792
 30
-0.0000000000000017
 11
20.71371922888621
 21
-37.37542656787977
 31
-0.0000000000000017
  0
LINE
  5
B5
330
1F
100
AcDbEntity
  8
0
 62
    98
420
   346117
370
    -3
100
AcDbLine
 10
10.44703976371577
 20
-33.5118639291709
 30
0.0000000000000017
 11
-18.80602296758708
 21
-79.37881357062906
 31
-0.0000000000000013
  0
LINE
  5
B6
330
1F
100
AcDbEntity
  8
0
 62
    98
420
   346117
370
    -3
100
AcDbLine
 10
1.727832200815039
 20
-24.28153317691725
 30
0.0000000000000009
 11
-0.1395416188897489
 21
-25.16487273219025
 31
-0.0000000000000012
  0
LINE
  5
B7
330
1F
100
AcDbEntity
  8
0
 62
    98
420
   346117
370
    -3
100
AcDbLine
 10
0.8715913213033925
 20
-21.53489599607224
 30
-0.0000000000000004
 11
-0.1395416189072802
 21
-25.16487273228058
 31
-0.0000000000000002
  0
LINE
  5
B8
330
1F
100
AcDbEntity
  8
0
 62
    98
420
   346117
370
    -3
100
AcDbLine
 10
2.868593346100843
 20
-18.40372147078252
 30
0.0
 11
4.336083925293899
 21
-18.95596835777867
 31
-0.0000000000000008
  0
LINE
  5
B9
330
1F
100
AcDbEntity
  8
0
 62
    98
420
   346117
370
    -3
100
AcDbLine
 10
2.868593346100843
 20
-18.40372147078252
 30
0.0
 11
4.735968836344958
 21
-17.52038112527226
 31
0.0000000000000005
  0
LINE
  5
BA
330
1F
100
AcDbEntity
  8
0
 62
    98
420
   346117
370
    -3
100
AcDbLine
 10
3.724834991596142
 20
-21.15036110873887
 30
-0.0000000000000009
 11
4.735968836362486
 21
-17.52038112518195
 31
0.0000000000000001
  0
LINE
  5
BB
330
1F
100
AcDbEntity
  8
0
 62
    98
420
   346117
370
    -3
100
AcDbLine
 10
-24.71267107392824
 20
-41.69253482206227
 30
0.0000000000000017
 11
-22.8452972541661
 21
-40.80919526668009
 31
-0.0000000000000009
  0
LINE
  5
BC
330
1F
100
AcDbEntity
  8
0
 62
    98
420
   346117
370
    -3
100
AcDbLine
 10
-24.71267107392824
 20
-41.69253482206227
 30
0.0000000000000017
 11
-23.24518180750733
 21
-42.24478121503525
 31
-0.0000000000000002
  0
LINE
  5
BD
330
1F
100
AcDbEntity
  8
0
 62
    98
420
   346117
370
    -3
100
AcDbLine
 10
-23.85643109893245
 20
-44.43917525023704
 30
-0.0000000000000009
 11
-22.8452972541661
 21
-40.80919526668009
 31
-0.0000000000000018
  0
LINE
  5
BE
330
1F
100
AcDbEntity
  8
0
 62
    98
420
   346117
370
    -3
100
AcDbLine
 10
-25.85343388967373
 20
-47.57034731839656
 30
-0.0000000000000026
 11
-27.72080770943588
 21
-48.45368687377874
 31
-0.0000000000000015
  0
LINE
  5
BF
330
1F
100
AcDbEntity
  8
0
 62
    98
420
   346117
370
    -3
100
AcDbLine
 10
-26.70967731707659
 20
-44.82371928436982
 30
-0.0000000000000009
 11
-27.72080770943587
 21
-48.45368687377874
 31
-0.0000000000000007
  0
LINE
  5
C0
330
1F
100
AcDbEntity
  8
0
 62
    98
420
   346117
370
    -3
100
AcDbLine
 10
-16.35504093345513
 20
-68.50202675561744
 30
0.0000000000000009
 11
-14.4876654431712
 21
-67.61868641008832
 31
-0.0000000000000023
  0
LINE
  5
C1
330
1F
100
AcDbEntity
  8
0
 62
    98
420
   346117
370
    -3
100
AcDbLine
 10
-16.35504093345513
 20
-68.50202675561744
 30
0.0000000000000009
 11
-14.88755035423751
 21
-69.05427364262282
 31
-0.0000000000000035
  0
LINE
  5
C2
330
1F
100
AcDbEntity
  8
0
 62
    98
420
   346117
370
    -3
100
AcDbLine
 10
-15.49879838342572
 20
-71.24866314630256
 30
-0.0000000000000035
 11
-14.4876654431712
 21
-67.61868641008832
 31
-0.0000000000000041
  0
LINE
  5
C3
330
1F
100
AcDbEntity
  8
0
 62
    98
420
   346117
370
    -3
100
AcDbLine
 10
-17.49580678414232
 20
-74.37984068759368
 30
-0.000000000000003
 11
-19.36317589848555
 21
-75.26317801704398
 31
-0.000000000000002
  0
LINE
  5
C4
330
1F
100
AcDbEntity
  8
0
 62
    98
420
   346117
370
    -3
100
AcDbLine
 10
-18.35204295823103
 20
-71.63320128082974
 30
-0.0000000000000048
 11
-19.36317589848555
 21
-75.263178017044
 31
-0.0000000000000022
  0
LINE
  5
C5
330
1F
100
AcDbEntity
  8
0
 62
    98
420
   346117
370
    -3
100
AcDbLine
 10
2.507019264712045
 20
-35.98288107162833
 30
0.0000000000000026
 11
-3.761204593517404
 21
-15.87576271412582
 31
0.0000000000000003
  0
LINE
  5
C6
330
1F
100
AcDbEntity
  8
0
 62
    98
420
   346117
370
    -3
100
AcDbLine
 10
-21.31304223229914
 20
-43.39593249900074
 30
0.0000000000000022
 11
-15.04481837406969
 21
-63.50305085650326
 31
-0.0000000000000025
  0
LINE
  5
C7
330
1F
100
AcDbEntity
  8
0
 62
    98
420
   346117
370
    -3
100
AcDbLine
 10
-8.957840215766371
 20
-53.95902774572622
 30
-0.0000000000000035
 11
-11.04636276712871
 21
-47.25949513770964
 31
-0.0000000000000052
  0
LINE
  5
CA
330
1F
100
AcDbEntity
  8
Hidden
370
    -3
100
AcDbLine
 10
-16.95536810451103
 20
-54.8578679448944
 30
0.0000000000000002
 11
-18.82274359474638
 21
-55.74120829040052
 31
0.0000000000000008
  0
LINE
  5
CB
330
1F
100
AcDbEntity
  8
Hidden
370
    -3
100
AcDbLine
 10
-17.96650194925109
 20
-58.48784792835694
 30
0.0
 11
-16.95536810451103
 21
-54.8578679448944
 31
-0.0000000000000015
  0
ELLIPSE
  5
CC
330
1F
100
AcDbEntity
  8
Hidden
370
    -3
100
AcDbEllipse
 10
-19.39312333211961
 20
-58.68011374834927
 30
-0.0000000000000051
 11
-1.127061687682741
 21
-2.994951076755303
 31
0.0
210
0.0
220
0.0
230
1.0
 40
0.4054162512521066
 41
0.396710415337866
 42
1.785700304725662
  0
LINE
  5
CD
330
1F
100
AcDbEntity
  8
Hidden
370
    -3
100
AcDbLine
 10
-21.83087855972817
 20
-62.5023595518041
 30
-0.0000000000000015
 11
-19.96350306949284
 21
-61.61901920629802
 31
-0.0000000000000027
  0
LINE
  5
CE
330
1F
100
AcDbEntity
  8
Hidden
370
    -3
100
AcDbLine
 10
-20.81974471498818
 20
-58.87237956834173
 30
0.0000000000000008
 11
-21.83087855972817
 21
-62.50235955180408
 31
-0.0000000000000019
  0
ELLIPSE
  5
CF
330
1F
100
AcDbEntity
  8
Hidden
370
    -3
100
AcDbEllipse
 10
-19.39312333211961
 20
-58.68011374834927
 30
-0.0000000000000051
 11
-1.127061687682741
 21
-2.994951076755303
 31
0.0
210
0.0
220
0.0
230
1.0
 40
0.4054162512521066
 41
3.538303068927669
 42
4.927292958315471
  0
ELLIPSE
  5
D0
330
1F
100
AcDbEntity
  8
Hidden
370
    -3
100
AcDbEllipse
 10
8.188142758408981
 20
-35.3912996068511
 30
-0.0000000000000017
 11
-1.127061687682741
 21
-2.994951076755303
 31
0.0
210
0.0
220
0.0
230
1.0
 40
0.4054162512521066
 41
0.396710415337866
 42
1.785700318227653
  0
ELLIPSE
  5
D1
330
1F
100
AcDbEntity
  8
Hidden
370
    -3
100
AcDbEllipse
 10
16.74370897938433
 20
-38.6109351391085
 30
-0.0000000000000052
 11
1.127061687682741
 21
2.994951076755303
 31
0.0
210
0.0
220
0.0
230
-1.0
 40
0.4054162512521066
 41
1.355892335362142
 42
2.744882238251929
  0
LINE
  5
D2
330
1F
100
AcDbEntity
  8
Hidden
370
    -3
100
AcDbLine
 10
7.617763021035744
 20
-38.33020506479984
 30
0.0000000000000009
 11
16.1733292420111
 21
-41.54984059705724
 31
0.0000000000000039
  0
ELLIPSE
  5
D3
330
1F
100
AcDbEntity
  8
Hidden
370
    -3
100
AcDbEllipse
 10
-10.83755711114425
 20
-61.89974928060667
 30
0.0000000000000078
 11
1.127061687682741
 21
2.994951076755303
 31
0.0
210
0.0
220
0.0
230
-1.0
 40
0.4054162512521066
 41
4.497485002453889
 42
5.886474891841734
  0
LINE
  5
D4
330
1F
100
AcDbEntity
  8
Hidden
370
    -3
100
AcDbLine
 10
-20.81974471498818
 20
-58.87237956834174
 30
-0.0000000000000027
 11
-12.26417849401281
 21
-62.09201510059912
 31
-0.0000000000000006
  0
ELLIPSE
  5
D5
330
1F
100
AcDbEntity
  8
Hidden
370
    -3
100
AcDbEllipse
 10
8.38607716841172
 20
-11.80144399577178
 30
-0.0000000000000009
 11
1.127061687682741
 21
2.994951076755303
 31
0.0
210
0.0
220
0.0
230
-1.0
 40
0.4054162512521066
 41
1.355888249591377
 42
2.744882626459807
  0
ELLIPSE
  5
D6
330
1F
100
AcDbEntity
  8
Hidden
370
    -3
100
AcDbEllipse
 10
-0.1694890525636337
 20
-8.581808463514374
 30
0.0000000000000002
 11
-1.127061687682741
 21
-2.994951076755303
 31
0.0
210
0.0
220
0.0
230
1.0
 40
0.4054162512521066
 41
0.3967100271299863
 42
1.785704403998415
  0
LINE
  5
D7
330
1F
100
AcDbEntity
  8
Hidden
370
    -3
100
AcDbLine
 10
1.257135782711961
 20
-8.38953024937397
 30
0.0
 11
9.812702003687313
 21
-11.60916578163137
 31
0.0
  0
ELLIPSE
  5
D8
330
1F
100
AcDbEntity
  8
Hidden
370
    -3
100
AcDbEllipse
 10
-10.83755711114425
 20
-61.89974928060667
 30
0.0000000000000078
 11
1.127061687682741
 21
2.994951076755303
 31
0.0
210
0.0
220
0.0
230
-1.0
 40
0.4054162512521066
 41
1.355892348864137
 42
2.744882238251932
  0
LINE
  5
D9
330
1F
100
AcDbEntity
  8
Hidden
370
    -3
100
AcDbLine
 10
-19.96350306949285
 20
-61.61901920629801
 30
-0.0000000000000033
 11
-11.40793684851749
 21
-64.8386547385554
 31
-0.0000000000000043
  0
ELLIPSE
  5
DA
330
1F
100
AcDbEntity
  8
Hidden
370
    -3
100
AcDbEllipse
 10
16.74370897938433
 20
-38.6109351391085
 30
-0.0000000000000052
 11
1.127061687682741
 21
2.994951076755303
 31
0.0
210
0.0
220
0.0
230
-1.0
 40
0.4054162512521066
 41
4.497484614246035
 42
5.886478991114471
  0
ELLIPSE
  5
DB
330
1F
100
AcDbEntity
  8
Hidden
370
    -3
100
AcDbEllipse
 10
8.188142758408981
 20
-35.3912996068511
 30
-0.0000000000000017
 11
-1.127061687682741
 21
-2.994951076755303
 31
0.0
210
0.0
220
0.0
230
1.0
 40
0.4054162512521066
 41
3.538298969654916
 42
4.927293346523351
  0
LINE
  5
DC
330
1F
100
AcDbEntity
  8
Hidden
370
    -3
100
AcDbLine
 10
6.761521048590782
 20
-35.58356660058986
 30
0.0000000000000026
 11
15.31708726956613
 21
-38.80320213284725
 31
-0.000000000000001
  0
ELLIPSE
  5
DD
330
1F
100
AcDbEntity
  8
Hidden
370
    -3
100
AcDbEllipse
 10
-0.1694890525636337
 20
-8.581808463514374
 30
0.0000000000000002
 11
-1.127061687682741
 21
-2.994951076755303
 31
0.0
210
0.0
220
0.0
230
1.0
 40
0.4054162512521066
 41
3.53830305542568
 42
4.927292958315466
  0
ELLIPSE
  5
DE
330
1F
100
AcDbEntity
  8
Hidden
370
    -3
100
AcDbEllipse
 10
8.38607716841172
 20
-11.80144399577178
 30
-0.0000000000000009
 11
1.127061687682741
 21
2.994951076755303
 31
0.0
210
0.0
220
0.0
230
-1.0
 40
0.4054162512521066
 41
4.497485002453914
 42
5.886474905343698
  0
LINE
  5
DF
330
1F
100
AcDbEntity
  8
Hidden
370
    -3
100
AcDbLine
 10
0.4008907058103768
 20
-5.642902995631357
 30
0.0
 11
8.956456926785728
 21
-8.862538527888757
 31
0.0
  0
ELLIPSE
  5
E0
330
1F
100
AcDbEntity
  8
Hidden
370
    -3
100
AcDbEllipse
 10
-8.369854449853019
 20
-74.66056774582356
 30
0.0000000000000009
 11
-1.12706168768274
 21
-2.994951076755301
 31
0.0
210
0.0
220
0.0
230
1.0
 40
0.4054162512521066
 41
3.53830306892766
 42
4.927294032326291
  0
LINE
  5
E1
330
1F
100
AcDbEntity
  8
Hidden
370
    -3
100
AcDbLine
 10
-15.98031626918705
 20
-72.52573081348977
 30
0.0000000000000009
 11
-9.796476737255677
 21
-74.85283681308714
 31
-0.0000000000000035
  0
ELLIPSE
  5
E2
330
1F
100
AcDbEntity
  8
Hidden
370
    -3
100
AcDbEllipse
 10
-8.369854449853019
 20
-74.66056774582356
 30
0.0000000000000009
 11
-1.12706168768274
 21
-2.994951076755301
 31
0.0
210
0.0
220
0.0
230
1.0
 40
0.4054162512521066
 41
0.396706316065123
 42
1.785701378736527
  0
LINE
  5
E3
330
1F
100
AcDbEntity
  8
Hidden
370
    -3
100
AcDbLine
 10
-17.49580678414232
 20
-74.37984068759368
 30
-0.000000000000003
 11
-8.94024056316697
 21
-77.59947621985107
 31
-0.000000000000003
  0
ELLIPSE
  5
E4
330
1F
100
AcDbEntity
  8
Hidden
370
    -3
100
AcDbEllipse
 10
-16.72748626082564
 20
-47.85107660248681
 30
-0.0000000000000002
 11
-1.12706168768274
 21
-2.994951076755301
 31
0.0
210
0.0
220
0.0
230
1.0
 40
0.4054162512521066
 41
3.53830199491684
 42
4.927297057588239
  0
LINE
  5
E5
330
1F
100
AcDbEntity
  8
Hidden
370
    -3
100
AcDbLine
 10
-24.33795222482976
 20
-45.71624821612225
 30
0.0000000000000022
 11
-18.15411109610123
 21
-48.04335481662722
 31
0.0000000000000011
  0
ELLIPSE
  5
E6
330
1F
100
AcDbEntity
  8
Hidden
370
    -3
100
AcDbEllipse
 10
-16.72748626082564
 20
-47.85107660248681
 30
-0.0000000000000002
 11
-1.12706168768274
 21
-2.994951076755301
 31
0.0
210
0.0
220
0.0
230
1.0
 40
0.4054162512521066
 41
0.3967093413270471
 42
1.785700304725677
  0
LINE
  5
E7
330
1F
100
AcDbEntity
  8
Hidden
370
    -3
100
AcDbLine
 10
-25.85343388967373
 20
-47.57034731839656
 30
-0.0000000000000026
 11
-17.29786766869838
 21
-50.78998285065398
 31
0.0000000000000015
  0
ELLIPSE
  5
E8
330
1F
100
AcDbEntity
  8
Hidden
370
    -3
100
AcDbEllipse
 10
10.85377982970296
 20
-24.56226246098866
 30
0.0000000000000009
 11
-1.127061687682741
 21
-2.994951076755302
 31
0.0
210
0.0
220
0.0
230
1.0
 40
0.4054162512521066
 41
0.3967093413014483
 42
1.785700304725676
  0
LINE
  5
E9
330
1F
100
AcDbEntity
  8
Hidden
370
    -3
100
AcDbLine
 10
1.727832200815039
 20
-24.28153317691725
 30
0.0000000000000009
 11
10.28339842179039
 21
-27.50116870917465
 31
-0.0000000000000027
  0
ELLIPSE
  5
EA
330
1F
100
AcDbEntity
  8
Hidden
370
    -3
100
AcDbEllipse
 10
10.85377982970296
 20
-24.56226246098866
 30
0.0000000000000009
 11
-1.127061687682741
 21
-2.994951076755302
 31
0.0
210
0.0
220
0.0
230
1.0
 40
0.4054162512521066
 41
3.538303068927659
 42
4.927294032351883
  0
LINE
  5
EB
330
1F
100
AcDbEntity
  8
Hidden
370
    -3
100
AcDbLine
 10
3.243318015090719
 20
-22.42742553051731
 30
0.0
 11
9.427157542278744
 21
-24.75453152832965
 31
0.0000000000000007
  0
LINE
  5
EC
330
1F
100
AcDbEntity
  8
Hidden
370
    -3
100
AcDbLine
 10
13.31685421412119
 20
-28.18274139722729
 30
0.0
 11
8.441343758904054
 21
-35.82723300413699
 31
-0.0000000000000023
  0
LINE
  5
ED
330
1F
100
AcDbEntity
  8
Hidden
370
    -3
100
AcDbLine
 10
14.90650662677372
 20
-27.32559921134237
 30
-0.0000000000000017
 11
10.03099617155659
 21
-34.97009081825207
 31
-0.0000000000000026
  0
LINE
  5
EE
330
1F
100
AcDbEntity
  8
Hidden
370
    -3
100
AcDbLine
 10
10.03099617155659
 20
-34.97009081825208
 30
0.0
 11
8.441343758904043
 21
-35.82723300413699
 31
0.0000000000000005
  0
LINE
  5
EF
330
1F
100
AcDbEntity
  8
Hidden
370
    -3
100
AcDbLine
 10
8.441343758904052
 20
-35.82723300413699
 30
-0.0000000000000035
 11
5.823699790011905
 21
-33.38679865790216
 31
-0.0000000000000001
  0
LINE
  5
F0
330
1F
100
AcDbEntity
  8
Hidden
370
    -3
100
AcDbLine
 10
10.69921024522905
 20
-25.74230705099247
 30
0.0000000000000017
 11
5.823699790011904
 21
-33.38679865790216
 31
0.0000000000000015
  0
LINE
  5
F1
330
1F
100
AcDbEntity
  8
Hidden
370
    -3
100
AcDbLine
 10
9.65439753681305
 20
-23.97454928675915
 30
-0.0000000000000017
 11
5.110518052347741
 21
-31.09906453513373
 31
0.0000000000000005
  0
ELLIPSE
  5
F2
330
1F
100
AcDbEntity
  8
Hidden
370
    -3
100
AcDbEllipse
 10
7.570757111969112
 20
-33.03457767668376
 30
0.0000000000000009
 11
2.69798349843915
 21
-1.72072224433522
 31
0.0
210
-1.492488636441904E-17
220
-2.340127656270215E-17
230
-1.0
 40
0.4217955176736195
 41
1.983534298533627
 42
3.372524187870231
  0
LINE
  5
F3
330
1F
100
AcDbEntity
  8
Hidden
370
    -3
100
AcDbLine
 10
10.04192170953194
 20
-25.00226804500374
 30
-0.0000000000000017
 11
6.700170464924664
 21
-30.24192234918933
 31
-0.0000000000000011
  0
LINE
  5
F4
330
1F
100
AcDbEntity
  8
Hidden
370
    -3
100
AcDbLine
 10
5.110518052347744
 20
-31.09906453513373
 30
-0.0000000000000009
 11
6.700170464924663
 21
-30.24192234918933
 31
-0.000000000000002
  0
LINE
  5
F5
330
1F
100
AcDbEntity
  8
Hidden
370
    -3
100
AcDbLine
 10
6.700170464924663
 20
-30.24192234918933
 30
-0.0000000000000009
 11
9.317814433870502
 21
-32.68235669541332
 31
-0.0000000000000031
  0
LINE
  5
F6
330
1F
100
AcDbEntity
  8
Hidden
370
    -3
100
AcDbLine
 10
12.60867470481008
 20
-27.52249621479625
 30
-0.0000000000000017
 11
9.317814433870502
 21
-32.68235669541332
 31
-0.000000000000004
  0
ELLIPSE
  5
F7
330
1F
100
AcDbEntity
  8
Hidden
370
    -3
100
AcDbEllipse
 10
7.570757111969112
 20
-33.03457767668376
 30
0.0000000000000009
 11
2.69798349843915
 21
-1.72072224433522
 31
0.0
210
-1.492488636441904E-17
220
-2.340127656270215E-17
230
-1.0
 40
0.4217955176736195
 41
5.12512695209782
 42
6.514116841485616
  0
LINE
  5
F8
330
1F
100
AcDbEntity
  8
Hidden
370
    -3
100
AcDbLine
 10
9.138038308634888
 20
-14.77799582555892
 30
-0.0000000000000009
 11
4.26252785341774
 21
-22.42248743246862
 31
-0.0000000000000019
  0
LINE
  5
F9
330
1F
100
AcDbEntity
  8
Hidden
370
    -3
100
AcDbLine
 10
10.72769072128743
 20
-13.92085363967401
 30
0.0
 11
5.852180266070278
 21
-21.56534524658371
 31
-0.0000000000000006
  0
LINE
  5
FA
330
1F
100
AcDbEntity
  8
Hidden
370
    -3
100
AcDbLine
 10
5.852180266070278
 20
-21.56534524658371
 30
-0.0000000000000009
 11
4.262527853417742
 21
-22.42248743246862
 31
-0.0000000000000011
  0
LINE
  5
FB
330
1F
100
AcDbEntity
  8
Hidden
370
    -3
100
AcDbLine
 10
4.262527853417743
 20
-22.42248743246861
 30
-0.0000000000000017
 11
1.644883884525601
 21
-19.9820530862338
 31
-0.0000000000000007
  0
LINE
  5
FC
330
1F
100
AcDbEntity
  8
Hidden
370
    -3
100
AcDbLine
 10
6.520394339742742
 20
-12.33756147932411
 30
0.0
 11
1.644883884525599
 21
-19.9820530862338
 31
-0.0000000000000009
  0
ELLIPSE
  5
FD
330
1F
100
AcDbEntity
  8
Hidden
370
    -3
100
AcDbEllipse
 10
3.391941206482803
 20
-19.6298321050154
 30
-0.0000000000000013
 11
2.69798349843915
 21
-1.72072224433522
 31
0.0
210
-1.492488636441904E-17
220
-2.340127656270215E-17
230
-1.0
 40
0.4217955176736195
 41
1.983534298533625
 42
3.372524187870224
  0
LINE
  5
FE
330
1F
100
AcDbEntity
  8
Hidden
370
    -3
100
AcDbLine
 10
5.475581631326753
 20
-10.56980371509077
 30
-0.0000000000000013
 11
0.9317021468614314
 21
-17.69431896346537
 31
-0.0000000000000008
  0
LINE
  5
FF
330
1F
100
AcDbEntity
  8
Hidden
370
    -3
100
AcDbLine
 10
5.863311418689545
 20
-11.59720008259618
 30
-0.0000000000000004
 11
2.521354559438356
 21
-16.83717677752097
 31
-0.0000000000000011
  0
LINE
  5
100
330
1F
100
AcDbEntity
  8
Hidden
370
    -3
100
AcDbLine
 10
0.9317021468614297
 20
-17.69431896346536
 30
0.0000000000000013
 11
2.521354559438355
 21
-16.83717677752096
 31
-0.0000000000000001
  0
LINE
  5
101
330
1F
100
AcDbEntity
  8
Hidden
370
    -3
100
AcDbLine
 10
2.521354559438356
 20
-16.83717677752096
 30
0.0000000000000004
 11
5.138998528384191
 21
-19.27761112374495
 31
0.0000000000000006
  0
LINE
  5
102
330
1F
100
AcDbEntity
  8
Hidden
370
    -3
100
AcDbLine
 10
8.429858799323783
 20
-14.11775064312789
 30
0.0
 11
5.138998528384191
 21
-19.27761112374495
 31
-0.0000000000000006
  0
ELLIPSE
  5
103
330
1F
100
AcDbEntity
  8
Hidden
370
    -3
100
AcDbEllipse
 10
3.391941206482803
 20
-19.6298321050154
 30
-0.0000000000000013
 11
2.69798349843915
 21
-1.72072224433522
 31
0.0
210
-1.492488636441904E-17
220
-2.340127656270215E-17
230
-1.0
 40
0.4217955176736195
 41
5.125126952097818
 42
6.514116841485622
  0
LINE
  5
104
330
1F
100
AcDbEntity
  8
Hidden
370
    -3
100
AcDbLine
 10
-20.11502442266798
 20
-60.64494546701708
 30
-0.0000000000000001
 11
-15.23951396745084
 21
-53.00045386010739
 31
-0.0000000000000002
  0
LINE
  5
105
330
1F
100
AcDbEntity
  8
Hidden
370
    -3
100
AcDbLine
 10
-22.73266839156011
 20
-58.20451112078226
 30
-0.0000000000000002
 11
-20.11502442266799
 21
-60.64494546701708
 31
0.0000000000000006
  0
LINE
  5
106
330
1F
100
AcDbEntity
  8
Hidden
370
    -3
100
AcDbLine
 10
-22.73266839156011
 20
-58.20451112078226
 30
-0.0000000000000002
 11
-17.85715793634297
 21
-50.56001951387256
 31
0.0
  0
LINE
  5
107
330
1F
100
AcDbEntity
  8
Hidden
370
    -3
100
AcDbLine
 10
-17.85715793634297
 20
-50.56001951387256
 30
-0.0000000000000025
 11
-15.23951396745083
 21
-53.00045386010738
 31
-0.0000000000000018
  0
LINE
  5
108
330
1F
100
AcDbEntity
  8
Hidden
370
    -3
100
AcDbLine
 10
-15.23951396745083
 20
-53.00045386010738
 30
0.0000000000000017
 11
-13.64986206883985
 21
-52.14331195139816
 31
0.0000000000000016
  0
LINE
  5
109
330
1F
100
AcDbEntity
  8
Hidden
370
    -3
100
AcDbLine
 10
-18.52537252405699
 20
-59.78780355830786
 30
0.0000000000000024
 11
-13.64986206883985
 21
-52.14331195139815
 31
0.000000000000002
  0
LINE
  5
10A
330
1F
100
AcDbEntity
  8
Hidden
370
    -3
100
AcDbLine
 10
-18.52537252405699
 20
-59.78780355830786
 30
0.0000000000000024
 11
-20.11502442266798
 21
-60.64494546701708
 31
0.0000000000000016
  0
LINE
  5
10B
330
1F
100
AcDbEntity
  8
Hidden
370
    -3
100
AcDbLine
 10
-19.23855374770152
 20
-57.50006915829341
 30
0.000000000000001
 11
-14.36304329248438
 21
-49.85557755138372
 31
-0.0000000000000046
  0
ELLIPSE
  5
10C
330
1F
100
AcDbEntity
  8
Hidden
370
    -3
100
AcDbEllipse
 10
-20.98561106960291
 20
-57.85229013956385
 30
-0.0000000000000015
 11
-2.697983498439151
 21
1.720722244335221
 31
0.0
210
1.492488636441904E-17
220
2.340127656270216E-17
230
1.0
 40
0.4217955176736195
 41
2.910660731050278
 42
4.299651008671562
  0
ELLIPSE
  5
10D
330
1F
100
AcDbEntity
  8
Hidden
370
    -3
100
AcDbEllipse
 10
-16.11010061438576
 20
-50.20779853265416
 30
-0.0000000000000025
 11
-2.697983498439151
 21
1.720722244335221
 31
0.0
210
1.492488636441904E-17
220
2.340127656270216E-17
230
1.0
 40
0.4217955176736195
 41
2.910660731050278
 42
4.299651008671562
  0
LINE
  5
10E
330
1F
100
AcDbEntity
  8
Hidden
370
    -3
100
AcDbLine
 10
-21.85619771664736
 20
-55.05963481206943
 30
0.0000000000000018
 11
-16.98068726143022
 21
-47.41514320515974
 31
0.0000000000000027
  0
LINE
  5
10F
330
1F
100
AcDbEntity
  8
Hidden
370
    -3
100
AcDbLine
 10
-19.23855374770152
 20
-57.50006915829341
 30
0.000000000000001
 11
-21.85619771664736
 21
-55.05963481206942
 31
0.0000000000000004
  0
LINE
  5
110
330
1F
100
AcDbEntity
  8
Hidden
370
    -3
100
AcDbLine
 10
-14.36304329248438
 20
-49.85557755138373
 30
-0.0000000000000041
 11
-16.98068726143021
 21
-47.41514320515974
 31
-0.0000000000000027
  0
LINE
  5
111
330
1F
100
AcDbEntity
  8
Hidden
370
    -3
100
AcDbLine
 10
-16.9806872613546
 20
-47.41514320521922
 30
-0.0000000000000015
 11
-18.57033915993168
 21
-48.27228511391017
 31
0.0000000000000001
  0
LINE
  5
112
330
1F
100
AcDbEntity
  8
Hidden
370
    -3
100
AcDbLine
 10
-23.44584961514882
 20
-55.91677672081985
 30
-0.0000000000000014
 11
-18.57033915993168
 21
-48.27228511391016
 31
0.0000000000000009
  0
LINE
  5
113
330
1F
100
AcDbEntity
  8
Hidden
370
    -3
100
AcDbLine
 10
-23.44584961514882
 20
-55.91677672081985
 30
-0.0000000000000014
 11
-21.85619771657175
 21
-55.05963481212893
 31
-0.0000000000000007
  0
ELLIPSE
  5
114
330
1F
100
AcDbEntity
  8
Hidden
370
    -3
100
AcDbEllipse
 10
-16.11010061438576
 20
-50.20779853265416
 30
-0.0000000000000025
 11
-2.697983498439151
 21
1.720722244335221
 31
0.0
210
1.492488636441904E-17
220
2.340127656270216E-17
230
1.0
 40
0.4217955176736195
 41
6.052253384640072
 42
7.441243662235753
  0
ELLIPSE
  5
115
330
1F
100
AcDbEntity
  8
Hidden
370
    -3
100
AcDbEllipse
 10
-20.98561106960291
 20
-57.85229013956385
 30
-0.0000000000000015
 11
-2.697983498439151
 21
1.720722244335221
 31
0.0
210
1.492488636441904E-17
220
2.340127656270216E-17
230
1.0
 40
0.4217955176736195
 41
6.052253384640072
 42
7.441243662235758
  0
LINE
  5
116
330
1F
100
AcDbEntity
  8
Hidden
370
    -3
100
AcDbLine
 10
-15.93620851718167
 20
-74.04969103868542
 30
0.0000000000000017
 11
-11.06069806196452
 21
-66.40519943177574
 31
0.0000000000000002
  0
LINE
  5
117
330
1F
100
AcDbEntity
  8
Hidden
370
    -3
100
AcDbLine
 10
-18.55385163955481
 20
-71.60925748166427
 30
-0.0000000000000043
 11
-15.93620851712798
 21
-74.04969103867462
 31
-0.0000000000000033
  0
LINE
  5
118
330
1F
100
AcDbEntity
  8
Hidden
370
    -3
100
AcDbLine
 10
-18.55385163955481
 20
-71.60925748166427
 30
-0.0000000000000043
 11
-13.67834118433767
 21
-63.96476587475458
 31
-0.0000000000000058
  0
LINE
  5
119
330
1F
100
AcDbEntity
  8
Hidden
370
    -3
100
AcDbLine
 10
-13.67834118433766
 20
-63.96476587475457
 30
-0.0000000000000039
 11
-11.06069806191083
 21
-66.40519943176491
 31
-0.0000000000000025
  0
LINE
  5
11A
330
1F
100
AcDbEntity
  8
Hidden
370
    -3
100
AcDbLine
 10
-11.06069806196452
 20
-66.40519943177574
 30
-0.0000000000000026
 11
-9.471045649311979
 21
-65.54805724589083
 31
0.0000000000000006
  0
LINE
  5
11B
330
1F
100
AcDbEntity
  8
Hidden
370
    -3
100
AcDbLine
 10
-14.34655610452912
 20
-73.19254885280054
 30
0.0000000000000043
 11
-9.47104564931198
 21
-65.54805724589085
 31
0.0000000000000012
  0
LINE
  5
11C
330
1F
100
AcDbEntity
  8
Hidden
370
    -3
100
AcDbLine
 10
-14.34655610452912
 20
-73.19254885280054
 30
0.0000000000000043
 11
-15.93620851718167
 21
-74.04969103868544
 31
-0.0000000000000002
  0
ELLIPSE
  5
11D
330
1F
100
AcDbEntity
  8
Hidden
370
    -3
100
AcDbEllipse
 10
-11.93128470889946
 20
-63.61254410432255
 30
-0.0000000000000009
 11
-2.697983498439151
 21
1.720722244335221
 31
0.0
210
1.492488636441904E-17
220
2.340127656270216E-17
230
1.0
 40
0.4217955176736195
 41
2.910661119283758
 42
4.299651396905041
  0
LINE
  5
11E
330
1F
100
AcDbEntity
  8
Hidden
370
    -3
100
AcDbLine
 10
-15.0597386886784
 20
-70.90481394080017
 30
0.0000000000000026
 11
-10.18422823346125
 21
-63.26032233389048
 31
-0.0000000000000019
  0
ELLIPSE
  5
11F
330
1F
100
AcDbEntity
  8
Hidden
370
    -3
100
AcDbEllipse
 10
-16.8067951641166
 20
-71.2570357112322
 30
-0.0000000000000017
 11
2.697983498439151
 21
-1.720722244335221
 31
0.0
210
-1.492488636441904E-17
220
-2.340127656270216E-17
230
-1.0
 40
0.4217955176736195
 41
5.125126563864339
 42
6.514116841485621
  0
LINE
  5
120
330
1F
100
AcDbEntity
  8
Hidden
370
    -3
100
AcDbLine
 10
-17.67738181116106
 20
-68.4643803837378
 30
0.0000000000000022
 11
-12.80187135594392
 21
-60.81988877682812
 31
-0.0000000000000002
  0
LINE
  5
121
330
1F
100
AcDbEntity
  8
Hidden
370
    -3
100
AcDbLine
 10
-15.0597386886784
 20
-70.90481394080017
 30
0.0000000000000026
 11
-17.67738181116106
 21
-68.46438038373779
 31
-0.0000000000000006
  0
LINE
  5
122
330
1F
100
AcDbEntity
  8
Hidden
370
    -3
100
AcDbLine
 10
-10.18422823346125
 20
-63.26032233389048
 30
0.0
 11
-12.80187135594391
 21
-60.81988877682809
 31
0.0000000000000046
  0
LINE
  5
123
330
1F
100
AcDbEntity
  8
Hidden
370
    -3
100
AcDbLine
 10
-12.80187135594391
 20
-60.81988877682809
 30
0.0000000000000035
 11
-14.39152376852083
 21
-61.67703096277249
 31
-0.0000000000000033
  0
LINE
  5
124
330
1F
100
AcDbEntity
  8
Hidden
370
    -3
100
AcDbLine
 10
-19.26703422373798
 20
-69.32152256968219
 30
0.0000000000000013
 11
-14.39152376852083
 21
-61.67703096277248
 31
-0.0000000000000042
  0
LINE
  5
125
330
1F
100
AcDbEntity
  8
Hidden
370
    -3
100
AcDbLine
 10
-19.26703422373798
 20
-69.32152256968219
 30
0.0000000000000013
 11
-17.67738181116106
 21
-68.46438038373778
 31
0.0000000000000002
  0
ELLIPSE
  5
126
330
1F
100
AcDbEntity
  8
Hidden
370
    -3
100
AcDbEllipse
 10
-11.93128470889946
 20
-63.61254410432255
 30
-0.0000000000000009
 11
-2.697983498439151
 21
1.720722244335221
 31
0.0
210
1.492488636441904E-17
220
2.340127656270216E-17
230
1.0
 40
0.4217955176736195
 41
6.052253772899151
 42
7.441244050494833
  0
ELLIPSE
  5
127
330
1F
100
AcDbEntity
  8
Hidden
370
    -3
100
AcDbEllipse
 10
-16.8067951641166
 20
-71.2570357112322
 30
-0.0000000000000017
 11
2.697983498439151
 21
-1.720722244335221
 31
0.0
210
-1.492488636441904E-17
220
-2.340127656270216E-17
230
-1.0
 40
0.4217955176736195
 41
1.983533910274546
 42
3.372524187870226
  0
LINE
  5
128
330
1F
100
AcDbEntity
  8
Hidden
370
    -3
100
AcDbLine
 10
-29.25306273130285
 20
-45.86694964145814
 30
0.0
 11
-18.98638326613242
 21
-49.73051228016703
 31
-0.0000000000000024
  0
LINE
  5
129
330
1F
100
AcDbEntity
  8
Hidden
370
    -3
100
AcDbLine
 10
-18.98638326613243
 20
-49.73051228016703
 30
-0.0000000000000038
 11
-8.539343502416656
 21
-83.24237620933793
 31
0.0000000000000011
  0
LINE
  5
12A
330
1F
100
AcDbEntity
  8
Hidden
370
    -3
100
AcDbLine
 10
-17.78155940700568
 20
-37.86089187204672
 30
-0.0000000000000009
 11
-16.04038611305306
 21
-43.44620252690854
 31
0.0000000000000021
  0
LINE
  5
12B
330
1F
100
AcDbEntity
  8
Hidden
370
    -3
100
AcDbLine
 10
-18.44595066172939
 20
-34.81259603521664
 30
0.0000000000000017
 11
-17.78155940700568
 21
-37.86089187204672
 31
-0.0000000000000002
  0
LINE
  5
12C
330
1F
100
AcDbEntity
  8
Hidden
370
    -3
100
AcDbLine
 10
-18.44595066172939
 20
-34.81259603521664
 30
0.0000000000000017
 11
-16.70477736777676
 21
-40.39790669007846
 31
-0.0000000000000044
  0
LINE
  5
12D
330
1F
100
AcDbEntity
  8
Hidden
370
    -3
100
AcDbLine
 10
-16.70477736777676
 20
-40.39790669007845
 30
-0.0000000000000038
 11
-16.04038611305305
 21
-43.44620252690853
 31
0.0000000000000034
  0
LINE
  5
12E
330
1F
100
AcDbEntity
  8
Hidden
370
    -3
100
AcDbLine
 10
-16.04038611305305
 20
-43.44620252690853
 30
0.0000000000000023
 11
-12.49748440025085
 21
-41.98118891603188
 31
-0.0000000000000009
  0
LINE
  5
12F
330
1F
100
AcDbEntity
  8
Hidden
370
    -3
100
AcDbLine
 10
-14.23865769420348
 20
-36.39587826117008
 30
-0.0000000000000001
 11
-12.49748440025085
 21
-41.98118891603188
 31
0.0000000000000005
  0
LINE
  5
130
330
1F
100
AcDbEntity
  8
Hidden
370
    -3
100
AcDbLine
 10
-14.23865769420348
 20
-36.39587826117008
 30
-0.0000000000000001
 11
-17.78155940700568
 21
-37.86089187204672
 31
-0.0000000000000012
  0
ELLIPSE
  5
131
330
1F
100
AcDbEntity
  8
Hidden
370
    -3
100
AcDbEllipse
 10
-13.60263088537415
 20
-39.62395672323696
 30
0.0000000000000007
 11
3.054994878316792
 21
0.9523687801782367
 31
0.0
210
0.0
220
0.0
230
1.0
 40
0.8110032086811569
 41
4.823089796110523
 42
6.212080073650669
  0
LINE
  5
132
330
1F
100
AcDbEntity
  8
Hidden
370
    -3
100
AcDbLine
 10
-12.24165542844729
 20
-33.26470650961852
 30
-0.0000000000000026
 11
-10.50048213449467
 21
-38.85001716448033
 31
-0.0000000000000015
  0
ELLIPSE
  5
133
330
1F
100
AcDbEntity
  8
Hidden
370
    -3
100
AcDbEllipse
 10
-15.34380417932678
 20
-34.03864606837514
 30
-0.0000000000000004
 11
-3.054994878316792
 21
-0.9523687801782367
 31
0.0
210
0.0
220
0.0
230
-1.0
 40
0.8110032086811569
 41
3.212697887118711
 42
4.601688164658857
  0
LINE
  5
134
330
1F
100
AcDbEntity
  8
Hidden
370
    -3
100
AcDbLine
 10
-12.90604895162599
 20
-30.21640026488216
 30
-0.0000000000000015
 11
-11.16487565767336
 21
-35.80171091974398
 31
-0.0000000000000012
  0
LINE
  5
135
330
1F
100
AcDbEntity
  8
Hidden
370
    -3
100
AcDbLine
 10
-12.24165542844729
 20
-33.26470650961852
 30
-0.0000000000000026
 11
-12.906048951626
 21
-30.21640026488216
 31
-0.0000000000000018
  0
LINE
  5
136
330
1F
100
AcDbEntity
  8
Hidden
370
    -3
100
AcDbLine
 10
-10.50048213449467
 20
-38.85001716448033
 30
-0.0000000000000015
 11
-11.16487565767336
 21
-35.80171091974398
 31
-0.0000000000000011
  0
LINE
  5
137
330
1F
100
AcDbEntity
  8
Hidden
370
    -3
100
AcDbLine
 10
-11.16487565767336
 20
-35.80171091974398
 30
-0.0000000000000011
 11
-14.70777737033356
 21
-37.26672453037425
 31
-0.000000000000003
  0
LINE
  5
138
330
1F
100
AcDbEntity
  8
Hidden
370
    -3
100
AcDbLine
 10
-16.44895066428619
 20
-31.68141387551243
 30
-0.0000000000000004
 11
-14.70777737033356
 21
-37.26672453037425
 31
-0.0000000000000042
  0
LINE
  5
139
330
1F
100
AcDbEntity
  8
Hidden
370
    -3
100
AcDbLine
 10
-16.44895066428619
 20
-31.68141387551243
 30
-0.0000000000000004
 11
-12.906048951626
 21
-30.21640026488216
 31
-0.0000000000000019
  0
ELLIPSE
  5
13A
330
1F
100
AcDbEntity
  8
Hidden
370
    -3
100
AcDbEllipse
 10
-13.60263088537415
 20
-39.62395672323696
 30
0.0000000000000007
 11
3.054994878316792
 21
0.9523687801782367
 31
0.0
210
0.0
220
0.0
230
1.0
 40
0.8110032086811569
 41
1.681497142465191
 42
3.070491519330295
  0
ELLIPSE
  5
13B
330
1F
100
AcDbEntity
  8
Hidden
370
    -3
100
AcDbEllipse
 10
-15.34380417932678
 20
-34.03864606837514
 30
-0.0000000000000004
 11
-3.054994878316792
 21
-0.9523687801782367
 31
0.0
210
0.0
220
0.0
230
-1.0
 40
0.8110032086811569
 41
0.0711011342594987
 42
1.460095511124602
  0
LINE
  5
13C
330
1F
100
AcDbEntity
  8
Hidden
370
    -3
100
AcDbLine
 10
-6.080334314401246
 20
-19.51411201533286
 30
0.0000000000000007
 11
-4.339161020448621
 21
-25.09942267019467
 31
0.0
  0
LINE
  5
13D
330
1F
100
AcDbEntity
  8
Hidden
370
    -3
100
AcDbLine
 10
-6.744727243320476
 20
-16.46580849759989
 30
-0.0000000000000007
 11
-6.080334314401244
 21
-19.51411201533285
 31
0.0000000000000009
  0
LINE
  5
13E
330
1F
100
AcDbEntity
  8
Hidden
370
    -3
100
AcDbLine
 10
-6.744727243320476
 20
-16.46580849759989
 30
-0.0000000000000007
 11
-5.00355394936785
 21
-22.05111915246171
 31
-0.0000000000000004
  0
LINE
  5
13F
330
1F
100
AcDbEntity
  8
Hidden
370
    -3
100
AcDbLine
 10
-5.00355394936785
 20
-22.05111915246171
 30
-0.0000000000000007
 11
-4.33916102044862
 21
-25.09942267019467
 31
-0.0000000000000003
  0
LINE
  5
140
330
1F
100
AcDbEntity
  8
Hidden
370
    -3
100
AcDbLine
 10
-4.33916102044862
 20
-25.09942267019468
 30
0.0000000000000009
 11
-0.7962613315958618
 21
-23.63440989633585
 31
0.0000000000000002
  0
LINE
  5
141
330
1F
100
AcDbEntity
  8
Hidden
370
    -3
100
AcDbLine
 10
-2.537434625548489
 20
-18.04909924147404
 30
-0.0000000000000015
 11
-0.7962613315958599
 21
-23.63440989633585
 31
-0.0000000000000022
  0
LINE
  5
142
330
1F
100
AcDbEntity
  8
Hidden
370
    -3
100
AcDbLine
 10
-2.537434625548489
 20
-18.04909924147404
 30
-0.0000000000000015
 11
-6.080334314401244
 21
-19.51411201533286
 31
0.0
  0
ELLIPSE
  5
143
330
1F
100
AcDbEntity
  8
Hidden
370
    -3
100
AcDbEllipse
 10
-1.90140579285301
 20
-21.2771768666537
 30
0.0000000000000013
 11
3.054994878316792
 21
0.9523687801782369
 31
0.0
210
0.0
220
0.0
230
1.0
 40
0.8110032086811569
 41
4.823089110279123
 42
6.212080461884145
  0
LINE
  5
144
330
1F
100
AcDbEntity
  8
Hidden
370
    -3
100
AcDbLine
 10
-0.5404305507667535
 20
-14.91792566730613
 30
-0.0000000000000002
 11
1.200742743185874
 21
-20.50323632216795
 31
0.0000000000000004
  0
ELLIPSE
  5
145
330
1F
100
AcDbEntity
  8
Hidden
370
    -3
100
AcDbEllipse
 10
-3.642579086805643
 20
-15.69186621179187
 30
-0.0000000000000001
 11
-3.054994878316792
 21
-0.9523687801782369
 31
0.0
210
0.0
220
0.0
230
-1.0
 40
0.8110032086811569
 41
3.212697498885233
 42
4.601688850490257
  0
LINE
  5
146
330
1F
100
AcDbEntity
  8
Hidden
370
    -3
100
AcDbLine
 10
-1.204823859104847
 20
-11.8696204082989
 30
-0.0000000000000009
 11
0.5363494348477804
 21
-17.45493106316071
 31
-0.0000000000000012
  0
LINE
  5
147
330
1F
100
AcDbEntity
  8
Hidden
370
    -3
100
AcDbLine
 10
-0.5404305507667535
 20
-14.91792566730613
 30
-0.0000000000000002
 11
-1.204823859104847
 21
-11.8696204082989
 31
0.0
  0
LINE
  5
148
330
1F
100
AcDbEntity
  8
Hidden
370
    -3
100
AcDbLine
 10
1.200742743185874
 20
-20.50323632216795
 30
-0.0000000000000004
 11
0.5363494348477809
 21
-17.45493106316072
 31
-0.0000000000000017
  0
LINE
  5
149
330
1F
100
AcDbEntity
  8
Hidden
370
    -3
100
AcDbLine
 10
0.5363494348477813
 20
-17.45493106316071
 30
-0.0000000000000013
 11
-3.006550254030261
 21
-18.9199438369385
 31
0.0
  0
LINE
  5
14A
330
1F
100
AcDbEntity
  8
Hidden
370
    -3
100
AcDbLine
 10
-4.747723547982889
 20
-13.33463318207668
 30
0.0
 11
-3.006550254030261
 21
-18.9199438369385
 31
0.0000000000000004
  0
LINE
  5
14B
330
1F
100
AcDbEntity
  8
Hidden
370
    -3
100
AcDbLine
 10
-4.747723547982889
 20
-13.33463318207668
 30
0.0
 11
-1.204823859104847
 21
-11.8696204082989
 31
-0.0000000000000008
  0
ELLIPSE
  5
14C
330
1F
100
AcDbEntity
  8
Hidden
370
    -3
100
AcDbEllipse
 10
-1.90140579285301
 20
-21.2771768666537
 30
0.0000000000000013
 11
3.054994878316792
 21
0.9523687801782369
 31
0.0
210
0.0
220
0.0
230
1.0
 40
0.8110032086811569
 41
1.681496456662253
 42
3.070488494121412
  0
ELLIPSE
  5
14D
330
1F
100
AcDbEntity
  8
Hidden
370
    -3
100
AcDbEllipse
 10
-3.642579086805643
 20
-15.69186621179187
 30
-0.0000000000000001
 11
-3.054994878316792
 21
-0.9523687801782369
 31
0.0
210
0.0
220
0.0
230
-1.0
 40
0.8110032086811569
 41
0.0711041594683812
 42
1.46009619692754
  0
LINE
  5
14E
330
1F
100
AcDbEntity
  8
Hidden
370
    -3
100
AcDbLine
 10
10.26667946517043
 20
-3.863562638708877
 30
0.0
 11
-18.98638326613243
 21
-49.73051228016703
 31
-0.000000000000003
  0
LINE
  5
14F
330
1F
100
AcDbEntity
  8
Hidden
370
    -3
100
AcDbLine
 10
-11.93094686067165
 20
-28.6875019435527
 30
0.0000000000000017
 11
-12.59533978958023
 21
-25.63919842589529
 31
-0.0000000000000004
  0
LINE
  5
150
330
1F
100
AcDbEntity
  8
Hidden
370
    -3
100
AcDbLine
 10
-8.388045148106803
 20
-27.22248833294621
 30
-0.0000000000000018
 11
-11.930946860767
 21
-28.68750194357647
 31
-0.0000000000000004
  0
ELLIPSE
  5
151
330
1F
100
AcDbEntity
  8
Hidden
370
    -3
100
AcDbEllipse
 10
-9.493191633066209
 20
-24.86525614008351
 30
-0.0000000000000009
 11
-3.054994878316792
 21
-0.9523687801782368
 31
0.0
210
0.0
220
0.0
230
-1.0
 40
0.811003208681157
 41
3.212697498859633
 42
4.601688164714394
  0
LINE
  5
152
330
1F
100
AcDbEntity
  8
Hidden
370
    -3
100
AcDbLine
 10
-7.055436405474937
 20
-21.04301033654932
 30
0.0000000000000007
 11
-6.391043097041493
 21
-24.09131559553274
 31
0.0000000000000018
  0
LINE
  5
153
330
1F
100
AcDbEntity
  8
Hidden
370
    -3
100
AcDbLine
 10
-10.59833609424346
 20
-22.50802311036831
 30
-0.0000000000000003
 11
-7.055436405440967
 21
-21.04301033662177
 31
-0.0000000000000008
  0
ELLIPSE
  5
154
330
1F
100
AcDbEntity
  8
Hidden
370
    -3
100
AcDbEllipse
 10
-9.493191633066209
 20
-24.86525614008351
 30
-0.0000000000000009
 11
-3.054994878316792
 21
-0.9523687801782368
 31
0.0
210
0.0
220
0.0
230
-1.0
 40
0.811003208681157
 41
0.0711041594669007
 42
1.460096196927541
  0
LINE
  5
155
330
1F
100
AcDbEntity
  8
Hidden
370
    -3
100
AcDbLine
 10
-2.459009187910224
 20
-63.72826419405308
 30
-0.0000000000000009
 11
-4.200182481862849
 21
-58.14295353919125
 31
-0.0000000000000044
  0
LINE
  5
156
330
1F
100
AcDbEntity
  8
Hidden
370
    -3
100
AcDbLine
 10
-6.00189994940808
 20
-65.19327327629304
 30
-0.0000000000000017
 11
-7.743073243360707
 21
-59.60796262143122
 31
0.000000000000001
  0
LINE
  5
157
330
1F
100
AcDbEntity
  8
Hidden
370
    -3
100
AcDbLine
 10
-7.743073243360705
 20
-59.60796262143122
 30
0.0000000000000009
 11
-4.200182481862847
 21
-58.14295353919125
 31
-0.0000000000000045
  0
LINE
  5
158
330
1F
100
AcDbEntity
  8
Hidden
370
    -3
100
AcDbLine
 10
-4.200182481958192
 20
-58.14295353921504
 30
-0.0000000000000026
 11
-3.535789173538922
 21
-61.19125879813348
 31
-0.0000000000000029
  0
LINE
  5
159
330
1F
100
AcDbEntity
  8
Hidden
370
    -3
100
AcDbLine
 10
-2.712255876838819
 20
-63.8329770651595
 30
-0.0000000000000017
 11
-3.535789173538923
 21
-61.19125879813348
 31
-0.0000000000000022
  0
LINE
  5
15A
330
1F
100
AcDbEntity
  8
Hidden
370
    -3
100
AcDbLine
 10
-5.345881276374947
 20
-64.92199443098723
 30
-0.0000000000000061
 11
-5.532790078940103
 21
-64.32243106180371
 31
-0.0000000000000008
  0
ELLIPSE
  5
15B
330
1F
100
AcDbEntity
  8
Hidden
370
    -3
100
AcDbEllipse
 10
-6.637937709563639
 20
-61.96519934268424
 30
0.0000000000000017
 11
-3.054994878316792
 21
-0.9523687801782368
 31
0.0
210
0.0
220
0.0
230
-1.0
 40
0.811003208681157
 41
3.212697498859634
 42
4.601687776480919
  0
LINE
  5
15C
330
1F
100
AcDbEntity
  8
Hidden
370
    -3
100
AcDbLine
 10
-7.334519643311799
 20
-71.37275580103903
 30
0.0000000000000017
 11
-9.075692937264433
 21
-65.78744514617722
 31
-0.000000000000001
  0
LINE
  5
15D
330
1F
100
AcDbEntity
  8
Hidden
370
    -3
100
AcDbLine
 10
-5.532790078940095
 20
-64.3224310618037
 30
0.0000000000000043
 11
-9.075692937264431
 21
-65.78744514617718
 31
0.0000000000000041
  0
LINE
  5
15E
330
1F
100
AcDbEntity
  8
Hidden
370
    -3
100
AcDbLine
 10
-9.075692937169086
 20
-65.7874451461534
 30
-0.0000000000000052
 11
-9.740085866077656
 21
-62.739141628496
 31
-0.0000000000000087
  0
LINE
  5
15F
330
1F
100
AcDbEntity
  8
Hidden
370
    -3
100
AcDbLine
 10
-7.998912572125033
 20
-68.32445228335783
 30
-0.0000000000000052
 11
-9.740085866077662
 21
-62.739141628496
 31
-0.0000000000000031
  0
ELLIPSE
  5
160
330
1F
100
AcDbEntity
  8
Hidden
370
    -3
100
AcDbEllipse
 10
-6.637937709563639
 20
-61.96519934268424
 30
0.0000000000000017
 11
-3.054994878316792
 21
-0.9523687801782368
 31
0.0
210
0.0
220
0.0
230
-1.0
 40
0.811003208681157
 41
0.0711041594669015
 42
1.460099222163867
  0
LINE
  5
161
330
1F
100
AcDbEntity
  8
Hidden
370
    -3
100
AcDbLine
 10
9.242215904501412
 20
-45.3814843374286
 30
0.0000000000000017
 11
7.501042610548784
 21
-39.79617368256679
 31
0.0000000000000014
  0
LINE
  5
162
330
1F
100
AcDbEntity
  8
Hidden
370
    -3
100
AcDbLine
 10
5.699316215732887
 20
-46.84649711124758
 30
0.0000000000000017
 11
3.958142921780252
 21
-41.26118645638577
 31
-0.0000000000000002
  0
LINE
  5
163
330
1F
100
AcDbEntity
  8
Hidden
370
    -3
100
AcDbLine
 10
3.958142921780252
 20
-41.26118645638577
 30
-0.0000000000000017
 11
7.501042610582748
 21
-39.79617368263924
 31
-0.0000000000000015
  0
LINE
  5
164
330
1F
100
AcDbEntity
  8
Hidden
370
    -3
100
AcDbLine
 10
7.501042610548778
 20
-39.79617368256677
 30
-0.0000000000000035
 11
8.165436133822826
 21
-42.84447992727934
 31
-0.0000000000000011
  0
LINE
  5
165
330
1F
100
AcDbEntity
  8
Hidden
370
    -3
100
AcDbLine
 10
8.98896913376448
 20
-45.48619724236791
 30
0.0
 11
8.165436133822823
 21
-42.84447992727935
 31
0.0000000000000026
  0
ELLIPSE
  5
166
330
1F
100
AcDbEntity
  8
Hidden
370
    -3
100
AcDbEllipse
 10
5.063287382957502
 20
-43.61841948610097
 30
-0.0000000000000026
 11
-3.054994878316792
 21
-0.9523687801782368
 31
0.0
210
0.0
220
0.0
230
-1.0
 40
0.811003208681157
 41
3.212697887093111
 42
4.601688164714394
  0
LINE
  5
167
330
1F
100
AcDbEntity
  8
Hidden
370
    -3
100
AcDbLine
 10
6.3553426704781
 20
-46.5752150481345
 30
-0.0000000000000035
 11
6.168433867916906
 21
-45.97565167896367
 31
-0.0000000000000047
  0
LINE
  5
168
330
1F
100
AcDbEntity
  8
Hidden
370
    -3
100
AcDbLine
 10
4.366705449318856
 20
-53.02597594449698
 30
-0.0000000000000035
 11
2.625532155366227
 21
-47.44066528963516
 31
-0.0000000000000023
  0
LINE
  5
169
330
1F
100
AcDbEntity
  8
Hidden
370
    -3
100
AcDbLine
 10
6.168433867916913
 20
-45.97565167896366
 30
-0.0000000000000017
 11
2.625532155332256
 21
-47.4406652895627
 31
-0.0000000000000013
  0
LINE
  5
16A
330
1F
100
AcDbEntity
  8
Hidden
370
    -3
100
AcDbLine
 10
2.625532155366229
 20
-47.44066528963515
 30
0.0000000000000017
 11
1.961140900570894
 21
-44.3923694530159
 31
-0.0000000000000011
  0
LINE
  5
16B
330
1F
100
AcDbEntity
  8
Hidden
370
    -3
100
AcDbLine
 10
3.702314194523524
 20
-49.97768010787772
 30
0.0000000000000009
 11
1.961140900570898
 21
-44.3923694530159
 31
-0.0000000000000009
  0
ELLIPSE
  5
16C
330
1F
100
AcDbEntity
  8
Hidden
370
    -3
100
AcDbEllipse
 10
5.063287382957502
 20
-43.61841948610097
 30
-0.0000000000000026
 11
-3.054994878316792
 21
-0.9523687801782368
 31
0.0
210
0.0
220
0.0
230
-1.0
 40
0.811003208681157
 41
0.0711011342305748
 42
1.46009619692754
  0
LINE
  5
16D
330
1F
100
AcDbEntity
  8
Hidden
370
    -3
100
AcDbLine
 10
-7.852901686755077
 20
-28.93911383308942
 30
0.0000000000000004
 11
-8.388045148106801
 21
-27.22248833294622
 31
0.0000000000000016
  0
LINE
  5
16E
330
1F
100
AcDbEntity
  8
Hidden
370
    -3
100
AcDbLine
 10
-9.841538908023837
 20
-35.38987472941069
 30
-0.000000000000003
 11
-11.930946860767
 21
-28.68750194357649
 31
0.0000000000000009
  0
LINE
  5
16F
330
1F
100
AcDbEntity
  8
Hidden
370
    -3
100
AcDbLine
 10
-10.50593183683707
 20
-32.34157121172948
 30
0.0000000000000007
 11
-12.59533978958023
 21
-25.63919842589529
 31
-0.0000000000000019
  0
LINE
  5
170
330
1F
100
AcDbEntity
  8
Hidden
370
    -3
100
AcDbLine
 10
-8.508928141500297
 20
-29.21039589620252
 30
-0.000000000000001
 11
-10.59833609424346
 21
-22.50802311036831
 31
-0.0000000000000018
  0
LINE
  5
171
330
1F
100
AcDbEntity
  8
Hidden
370
    -3
100
AcDbLine
 10
-4.966028452731774
 20
-27.74538312238353
 30
-0.0000000000000007
 11
-7.055436405474936
 21
-21.04301033654932
 31
-0.0000000000000003
  0
LINE
  5
172
330
1F
100
AcDbEntity
  8
Hidden
370
    -3
100
AcDbLine
 10
-5.219275141572916
 20
-27.85009599346043
 30
-0.0000000000000007
 11
-6.391043097041492
 21
-24.09131559553276
 31
0.0000000000000012
  0
LINE
  5
173
330
1F
100
AcDbEntity
  8
Hidden
370
    -3
100
AcDbLine
 10
0.504730124217527
 20
-55.74860497642612
 30
0.0
 11
-0.0304133371341944
 21
-54.03197947628292
 31
-0.0000000000000001
  0
LINE
  5
174
330
1F
100
AcDbEntity
  8
Hidden
370
    -3
100
AcDbLine
 10
-0.0304133371341817
 20
-54.03197947628293
 30
-0.0000000000000017
 11
-3.573315049794382
 21
-55.4969930869132
 31
-0.0000000000000002
  0
LINE
  5
175
330
1F
100
AcDbEntity
  8
Hidden
370
    -3
100
AcDbLine
 10
-1.483907097051228
 20
-62.19936587274739
 30
0.0000000000000009
 11
-3.573315049794383
 21
-55.4969930869132
 31
-0.0000000000000013
  0
LINE
  5
176
330
1F
100
AcDbEntity
  8
Hidden
370
    -3
100
AcDbLine
 10
-3.573315049699049
 20
-55.49699308688942
 30
0.0000000000000017
 11
-4.237707978607618
 21
-52.44868956923201
 31
-0.0000000000000031
  0
LINE
  5
177
330
1F
100
AcDbEntity
  8
Hidden
370
    -3
100
AcDbLine
 10
-2.148300025864455
 20
-59.15106235506621
 30
-0.0000000000000009
 11
-4.237707978607616
 21
-52.44868956923201
 31
-0.0000000000000024
  0
ELLIPSE
  5
178
330
1F
100
AcDbEntity
  8
Hidden
370
    -3
100
AcDbEllipse
 10
-1.135559822093599
 20
-51.67474728342021
 30
0.0000000000000009
 11
-3.054994878316792
 21
-0.9523687801782368
 31
0.0
210
0.0
220
0.0
230
-1.0
 40
0.811003208681157
 41
0.0711041594669007
 42
1.460096196927541
  0
LINE
  5
179
330
1F
100
AcDbEntity
  8
Hidden
370
    -3
100
AcDbLine
 10
-0.1512963305276838
 20
-56.01988703953921
 30
-0.0000000000000009
 11
-2.240704283270847
 21
-49.31751425370503
 31
-0.0000000000000015
  0
LINE
  5
17A
330
1F
100
AcDbEntity
  8
Hidden
370
    -3
100
AcDbLine
 10
-2.240704283270845
 20
-49.31751425370502
 30
-0.0000000000000017
 11
1.302195405531641
 21
-47.85250147995848
 31
-0.0000000000000011
  0
LINE
  5
17B
330
1F
100
AcDbEntity
  8
Hidden
370
    -3
100
AcDbLine
 10
3.391603358240833
 20
-54.55487426572024
 30
-0.0000000000000017
 11
1.302195405497678
 21
-47.85250147988602
 31
-0.0000000000000002
  0
LINE
  5
17C
330
1F
100
AcDbEntity
  8
Hidden
370
    -3
100
AcDbLine
 10
1.302195405497674
 20
-47.85250147988602
 30
0.0000000000000017
 11
1.966588713931117
 21
-50.90080673886946
 31
-0.0000000000000019
  0
LINE
  5
17D
330
1F
100
AcDbEntity
  8
Hidden
370
    -3
100
AcDbLine
 10
3.138356669399699
 20
-54.65958713679712
 30
-0.0000000000000017
 11
1.966588713931123
 21
-50.90080673886946
 31
0.0000000000000017
  0
ELLIPSE
  5
17E
330
1F
100
AcDbEntity
  8
Hidden
370
    -3
100
AcDbEllipse
 10
-1.135559822093599
 20
-51.67474728342021
 30
0.0000000000000009
 11
-3.054994878316792
 21
-0.9523687801782368
 31
0.0
210
0.0
220
0.0
230
-1.0
 40
0.811003208681157
 41
3.212697498859633
 42
4.601688164714394
  0
LINE
  5
17F
330
1F
100
AcDbEntity
  8
Hidden
370
    -3
100
AcDbLine
 10
0.418498420751201
 20
-29.28331891366966
 30
0.0
 11
6.505474871653021
 21
-19.73932535283471
 31
-0.0000000000000006
  0
LINE
  5
180
330
1F
100
AcDbEntity
  8
Hidden
370
    -3
100
AcDbLine
 10
-3.761204593517406
 20
-15.87576271412582
 30
-0.0000000000000004
 11
6.505474871653016
 21
-19.7393253528347
 31
-0.0000000000000004
  0
LINE
  5
181
330
1F
100
AcDbEntity
  8
Hidden
370
    -3
100
AcDbLine
 10
2.507019264712045
 20
-35.98288107162833
 30
0.0000000000000026
 11
12.77369872988246
 21
-39.84644371033721
 31
0.0000000000000032
  0
LINE
  5
182
330
1F
100
AcDbEntity
  8
Hidden
370
    -3
100
AcDbLine
 10
12.77369872988246
 20
-39.84644371033722
 30
0.0000000000000017
 11
-4.778138908899266
 21
-67.36661349521214
 31
0.0000000000000022
  0
LINE
  5
183
330
1F
100
AcDbEntity
  8
Hidden
370
    -3
100
AcDbLine
 10
-15.04481837406969
 20
-63.50305085650326
 30
-0.0000000000000013
 11
-4.778138908899266
 21
-67.36661349521214
 31
0.0000000000000054
  0
LINE
  5
184
330
1F
100
AcDbEntity
  8
Hidden
370
    -3
100
AcDbLine
 10
-0.1395416189072796
 20
-25.16487273228058
 30
0.0000000000000013
 11
8.416024602068076
 21
-28.38450826453798
 31
0.0000000000000023
  0
LINE
  5
185
330
1F
100
AcDbEntity
  8
Hidden
370
    -3
100
AcDbLine
 10
8.416024602085603
 20
-28.38450826444765
 30
0.0000000000000017
 11
10.28339842179039
 21
-27.50116870917466
 31
0.0000000000000023
  0
LINE
  5
186
330
1F
100
AcDbEntity
  8
Hidden
370
    -3
100
AcDbLine
 10
9.427157542278746
 20
-24.75453152832965
 30
0.0000000000000009
 11
8.416024602068074
 21
-28.38450826453798
 31
0.0
  0
LINE
  5
187
330
1F
100
AcDbEntity
  8
Hidden
370
    -3
100
AcDbLine
 10
4.336083925293899
 20
-18.95596835777867
 30
-0.0000000000000009
 11
11.4241595670762
 21
-21.62335700303993
 31
-0.0000000000000025
  0
LINE
  5
188
330
1F
100
AcDbEntity
  8
Hidden
370
    -3
100
AcDbLine
 10
4.735968836362487
 20
-17.52038112518195
 30
0.0
 11
13.29153505733784
 21
-20.74001665743934
 31
-0.000000000000001
  0
LINE
  5
189
330
1F
100
AcDbEntity
  8
Hidden
370
    -3
100
AcDbLine
 10
13.29153505732031
 20
-20.74001665752966
 30
-0.0000000000000009
 11
11.4241595670762
 21
-21.62335700303993
 31
-0.000000000000002
  0
LINE
  5
18A
330
1F
100
AcDbEntity
  8
Hidden
370
    -3
100
AcDbLine
 10
12.2804012125715
 20
-24.36999664099627
 30
0.0000000000000026
 11
13.29153505733784
 21
-20.74001665743934
 31
-0.0000000000000009
  0
LINE
  5
18B
330
1F
100
AcDbEntity
  8
Hidden
370
    -3
100
AcDbLine
 10
3.724834991596142
 20
-21.15036110873887
 30
-0.0000000000000009
 11
12.2804012125715
 21
-24.36999664099627
 31
0.0000000000000027
  0
LINE
  5
18C
330
1F
100
AcDbEntity
  8
Hidden
370
    -3
100
AcDbLine
 10
-22.8452972541661
 20
-40.80919526668009
 30
-0.0000000000000039
 11
-14.28973103319075
 21
-44.02883079893749
 31
-0.0000000000000019
  0
LINE
  5
18D
330
1F
100
AcDbEntity
  8
Hidden
370
    -3
100
AcDbLine
 10
-23.24518180750734
 20
-42.24478121503525
 30
-0.0000000000000017
 11
-16.15710485295289
 21
-44.91217035431967
 31
0.0000000000000012
  0
LINE
  5
18E
330
1F
100
AcDbEntity
  8
Hidden
370
    -3
100
AcDbLine
 10
-14.28973103319074
 20
-44.02883079893748
 30
-0.0000000000000034
 11
-16.15710485295289
 21
-44.91217035431967
 31
-0.0000000000000044
  0
LINE
  5
18F
330
1F
100
AcDbEntity
  8
Hidden
370
    -3
100
AcDbLine
 10
-15.30086487795711
 20
-47.65881078249445
 30
0.0000000000000022
 11
-14.28973103319075
 21
-44.0288307989375
 31
0.0000000000000033
  0
LINE
  5
190
330
1F
100
AcDbEntity
  8
Hidden
370
    -3
100
AcDbLine
 10
-23.85643109893245
 20
-44.43917525023704
 30
-0.0000000000000009
 11
-15.3008648779571
 21
-47.65881078249444
 31
0.0000000000000001
  0
LINE
  5
191
330
1F
100
AcDbEntity
  8
Hidden
370
    -3
100
AcDbLine
 10
-27.72080770943587
 20
-48.45368687377875
 30
-0.0000000000000013
 11
-19.16524148846051
 21
-51.67332240603615
 31
-0.0000000000000023
  0
LINE
  5
192
330
1F
100
AcDbEntity
  8
Hidden
370
    -3
100
AcDbLine
 10
-19.16524148846052
 20
-51.67332240603614
 30
0.0000000000000001
 11
-17.29786766869838
 21
-50.78998285065398
 31
0.0000000000000009
  0
LINE
  5
193
330
1F
100
AcDbEntity
  8
Hidden
370
    -3
100
AcDbLine
 10
-18.15411109610123
 20
-48.04335481662721
 30
-0.0000000000000045
 11
-19.16524148846051
 21
-51.67332240603615
 31
-0.0000000000000031
  0
LINE
  5
194
330
1F
100
AcDbEntity
  8
Hidden
370
    -3
100
AcDbLine
 10
-14.4876654431712
 20
-67.6186864100883
 30
-0.0000000000000022
 11
-5.932099222195841
 21
-70.83832194234571
 31
-0.0000000000000022
  0
LINE
  5
195
330
1F
100
AcDbEntity
  8
Hidden
370
    -3
100
AcDbLine
 10
-14.88755035423751
 20
-69.0542736426228
 30
-0.0000000000000048
 11
-7.799474712479777
 21
-71.7216622878748
 31
0.000000000000002
  0
LINE
  5
196
330
1F
100
AcDbEntity
  8
Hidden
370
    -3
100
AcDbLine
 10
-5.932099222195848
 20
-70.83832194234571
 30
-0.0000000000000035
 11
-7.799474712479789
 21
-71.7216622878748
 31
-0.0000000000000044
  0
LINE
  5
197
330
1F
100
AcDbEntity
  8
Hidden
370
    -3
100
AcDbLine
 10
-6.94323216245037
 20
-74.46829867855995
 30
0.0000000000000035
 11
-5.932099222195848
 21
-70.83832194234571
 31
0.0000000000000021
  0
LINE
  5
198
330
1F
100
AcDbEntity
  8
Hidden
370
    -3
100
AcDbLine
 10
-15.49879838342572
 20
-71.24866314630256
 30
-0.0000000000000035
 11
-6.94323216245037
 21
-74.46829867855995
 31
0.0000000000000001
  0
LINE
  5
199
330
1F
100
AcDbEntity
  8
Hidden
370
    -3
100
AcDbLine
 10
-19.36317589848555
 20
-75.263178017044
 30
-0.000000000000003
 11
-10.80760967751019
 21
-78.48281354930138
 31
-0.0000000000000056
  0
LINE
  5
19A
330
1F
100
AcDbEntity
  8
Hidden
370
    -3
100
AcDbLine
 10
-10.8076096775102
 20
-78.48281354930138
 30
0.0
 11
-8.940240563166974
 21
-77.59947621985108
 31
-0.0000000000000003
  0
LINE
  5
19B
330
1F
100
AcDbEntity
  8
Hidden
370
    -3
100
AcDbLine
 10
-9.796476737255677
 20
-74.85283681308714
 30
-0.0000000000000069
 11
-10.80760967751019
 21
-78.48281354930137
 31
-0.000000000000007
  0
LINE
  5
19C
330
1F
100
AcDbEntity
  8
Hidden
370
    -3
100
AcDbLine
 10
-2.607244280198523
 20
-12.4040542670637
 30
-0.0000000000000016
 11
-0.7398693937493701
 21
-11.52071420709286
 31
-0.0000000000000004
  0
LINE
  5
19D
330
1F
100
AcDbEntity
  8
Hidden
370
    -3
100
AcDbLine
 10
-1.596110435432174
 20
-8.774074283506767
 30
0.0000000000000001
 11
-2.607244280198524
 21
-12.4040542670637
 31
0.0
  0
LINE
  5
19E
330
1F
100
AcDbEntity
  8
Hidden
370
    -3
100
AcDbLine
 10
2.268266175071253
 20
-4.759562659965045
 30
0.0
 11
0.4008907058103729
 21
-5.642902995631359
 31
0.0
  0
LINE
  5
19F
330
1F
100
AcDbEntity
  8
Hidden
370
    -3
100
AcDbLine
 10
1.257135782711961
 20
-8.38953024937397
 30
0.0
 11
2.268266175071253
 21
-4.759562659965044
 31
0.0000000000000002
  0
LINE
  5
1A0
330
1F
100
AcDbEntity
  8
Hidden
370
    -3
100
AcDbLine
 10
2.268266175071253
 20
-4.759562659965045
 30
0.0
 11
10.82383239604661
 21
-7.979198192222446
 31
0.0
  0
LINE
  5
1A1
330
1F
100
AcDbEntity
  8
Hidden
370
    -3
100
AcDbLine
 10
8.956456926785727
 20
-8.862538527888761
 30
0.0
 11
10.82383239604661
 21
-7.979198192222446
 31
-0.0000000000000002
  0
LINE
  5
1A2
330
1F
100
AcDbEntity
  8
Hidden
370
    -3
100
AcDbLine
 10
-1.596110435432174
 20
-8.774074283506767
 30
0.0000000000000001
 11
6.959455785543181
 21
-11.99370981576417
 31
0.0000000000000006
  0
LINE
  5
1A3
330
1F
100
AcDbEntity
  8
Hidden
370
    -3
100
AcDbLine
 10
-2.607244280198523
 20
-12.4040542670637
 30
-0.0000000000000016
 11
5.94832194077683
 21
-15.6236897993211
 31
0.0000000000000004
  0
LINE
  5
1A4
330
1F
100
AcDbEntity
  8
Hidden
370
    -3
100
AcDbLine
 10
5.948321940776829
 20
-15.62368979932111
 30
-0.0000000000000026
 11
6.959455785543183
 21
-11.99370981576417
 31
-0.0000000000000015
  0
LINE
  5
1A5
330
1F
100
AcDbEntity
  8
Hidden
370
    -3
100
AcDbLine
 10
10.62589798606616
 20
-31.56905380337326
 30
0.0000000000000017
 11
8.758528871722934
 21
-32.45239113282357
 31
0.0000000000000021
  0
LINE
  5
1A6
330
1F
100
AcDbEntity
  8
Hidden
370
    -3
100
AcDbLine
 10
9.614764152648927
 20
-35.19903374603549
 30
-0.0000000000000017
 11
10.62589798606616
 21
-31.56905380337326
 31
-0.0000000000000027
  0
LINE
  5
1A7
330
1F
100
AcDbEntity
  8
Hidden
370
    -3
100
AcDbLine
 10
5.75038753075181
 20
-39.21354541032895
 30
-0.0000000000000009
 11
7.61776302103574
 21
-38.33020506479984
 31
-0.0000000000000013
  0
LINE
  5
1A8
330
1F
100
AcDbEntity
  8
Hidden
370
    -3
100
AcDbLine
 10
6.761521048590782
 20
-35.58356660058986
 30
0.0000000000000026
 11
5.750387530751809
 21
-39.21354541032895
 31
0.0000000000000024
  0
LINE
  5
1A9
330
1F
100
AcDbEntity
  8
Hidden
370
    -3
100
AcDbLine
 10
8.758528871722936
 20
-32.45239113282357
 30
-0.0000000000000009
 11
17.31409509269829
 21
-35.67202666508096
 31
-0.0000000000000009
  0
LINE
  5
1AA
330
1F
100
AcDbEntity
  8
Hidden
370
    -3
100
AcDbLine
 10
5.75038753075181
 20
-39.21354541032895
 30
-0.0000000000000009
 11
14.30595375172716
 21
-42.43318094258634
 31
-0.0000000000000019
  0
LINE
  5
1AB
330
1F
100
AcDbEntity
  8
Hidden
370
    -3
100
AcDbLine
 10
14.30595375172716
 20
-42.43318094258634
 30
0.0
 11
15.31708726956613
 21
-38.80320213284725
 31
-0.0000000000000027
  0
LINE
  5
1AC
330
1F
100
AcDbEntity
  8
Hidden
370
    -3
100
AcDbLine
 10
16.1733292420111
 20
-41.54984059705724
 30
0.0000000000000017
 11
14.30595375172716
 21
-42.43318094258633
 31
-0.0000000000000018
  0
LINE
  5
1AD
330
1F
100
AcDbEntity
  8
Hidden
370
    -3
100
AcDbLine
 10
-21.83087855972817
 20
-62.5023595518041
 30
-0.0000000000000015
 11
-13.27531233875281
 21
-65.72199508406149
 31
0.0000000000000005
  0
LINE
  5
1AE
330
1F
100
AcDbEntity
  8
Hidden
370
    -3
100
AcDbLine
 10
-13.27531233875281
 20
-65.72199508406149
 30
0.0
 11
-12.26417849401282
 21
-62.09201510059913
 31
-0.0000000000000023
  0
LINE
  5
1AF
330
1F
100
AcDbEntity
  8
Hidden
370
    -3
100
AcDbLine
 10
-11.40793684851749
 20
-64.8386547385554
 30
-0.0000000000000052
 11
-13.27531233875281
 21
-65.72199508406149
 31
-0.0000000000000012
  0
LINE
  5
1B0
330
1F
100
AcDbEntity
  8
Hidden
370
    -3
100
AcDbLine
 10
-17.96650194925109
 20
-58.48784792835694
 30
0.0
 11
-9.410935728275724
 21
-61.70748346061434
 31
-0.0000000000000025
  0
LINE
  5
1B1
330
1F
100
AcDbEntity
  8
Hidden
370
    -3
100
AcDbLine
 10
10.82383239604661
 20
-7.979198192222446
 30
-0.0000000000000009
 11
9.812702003687315
 21
-11.60916578163137
 31
-0.0000000000000009
  0
LINE
  5
1B2
330
1F
100
AcDbEntity
  8
Hidden
370
    -3
100
AcDbLine
 10
-0.7398693937493706
 20
-11.52071420709285
 30
0.0000000000000002
 11
7.815696827225985
 21
-14.74034973935026
 31
0.0000000000000002
  0
LINE
  5
1B3
330
1F
100
AcDbEntity
  8
Hidden
370
    -3
100
AcDbLine
 10
7.815696827225986
 20
-14.74034973935025
 30
0.0
 11
5.948321940776832
 21
-15.6236897993211
 31
0.0000000000000014
  0
LINE
  5
1B4
330
1F
100
AcDbEntity
  8
Hidden
370
    -3
100
AcDbLine
 10
-4.778138908899266
 20
-67.36661349521214
 30
0.0000000000000026
 11
-8.957840215766371
 21
-53.95902774572622
 31
-0.0000000000000032
  0
LINE
  5
1B5
330
1F
100
AcDbEntity
  8
Hidden
370
    -3
100
AcDbLine
 10
6.505474871653018
 20
-19.7393253528347
 30
-0.0000000000000009
 11
12.77369872988246
 21
-39.84644371033722
 31
0.0000000000000032
  0
LINE
  5
1B6
330
1F
100
AcDbEntity
  8
Hidden
370
    -3
100
AcDbLine
 10
-18.82274359474638
 20
-55.74120829040054
 30
-0.0000000000000022
 11
-10.26717737377103
 21
-58.96084382265794
 31
0.0000000000000049
  0
LINE
  5
1B7
330
1F
100
AcDbEntity
  8
Hidden
370
    -3
100
AcDbLine
 10
-16.95536810451103
 20
-54.8578679448944
 30
0.0000000000000002
 11
-8.39980188353568
 21
-58.07750347715181
 31
0.0000000000000043
  0
LINE
  5
1B8
330
1F
100
AcDbEntity
  8
Hidden
370
    -3
100
AcDbLine
 10
-10.26717737377102
 20
-58.96084382265792
 30
0.0000000000000009
 11
-8.399801883535682
 21
-58.07750347715182
 31
0.0000000000000051
  0
LINE
  5
1B9
330
1F
100
AcDbEntity
  8
Hidden
370
    -3
100
AcDbLine
 10
-8.399801883535682
 20
-58.07750347715182
 30
0.0000000000000017
 11
-9.410935728275723
 21
-61.70748346061435
 31
-0.0000000000000036
  0
LINE
  5
1BA
330
1F
100
AcDbEntity
  8
Hidden
370
    -3
100
AcDbLine
 10
10.62589798606616
 20
-31.56905380337326
 30
0.0000000000000017
 11
19.18146420704152
 21
-34.78868933563066
 31
-0.0000000000000008
  0
LINE
  5
1BB
330
1F
100
AcDbEntity
  8
Hidden
370
    -3
100
AcDbLine
 10
17.31409509269828
 20
-35.67202666508096
 30
-0.0000000000000017
 11
19.18146420704151
 21
-34.78868933563066
 31
-0.0000000000000049
  0
LINE
  5
1BC
330
1F
100
AcDbEntity
  8
Hidden
370
    -3
100
AcDbLine
 10
9.614764152648927
 20
-35.19903374603549
 30
-0.0000000000000017
 11
18.17033037362428
 21
-38.41866927829289
 31
-0.0000000000000012
  0
LINE
  5
1BD
330
1F
100
AcDbEntity
  8
Hidden
370
    -3
100
AcDbLine
 10
19.18146420704151
 20
-34.78868933563067
 30
0.0000000000000017
 11
18.17033037362429
 21
-38.4186692782929
 31
0.0000000000000003
  0
LINE
  5
1BE
330
1F
100
AcDbEntity
  8
Hidden
370
    -3
100
AcDbLine
 10
9.748284068747104
 20
-23.66936382543885
 30
-0.0000000000000009
 11
4.872773722506113
 21
-31.31385526148084
 31
-0.0000000000000005
  0
LINE
  5
1BF
330
1F
100
AcDbEntity
  8
Hidden
370
    -3
100
AcDbLine
 10
10.26874071938442
 20
-34.75529975015128
 30
-0.0000000000000017
 11
15.14425106562541
 21
-27.1108083141093
 31
0.0000000000000004
  0
LINE
  5
1C0
330
1F
100
AcDbEntity
  8
Hidden
370
    -3
100
AcDbLine
 10
5.569468163260797
 20
-10.26461825377048
 30
-0.0000000000000004
 11
0.6939578170198062
 21
-17.90910968981247
 31
-0.0000000000000001
  0
LINE
  5
1C1
330
1F
100
AcDbEntity
  8
Hidden
370
    -3
100
AcDbLine
 10
6.089924813898104
 20
-21.35055417848292
 30
-0.0000000000000009
 11
10.9654351601391
 21
-13.70606274244092
 31
0.0000000000000011
  0
LINE
  5
1C2
330
1F
100
AcDbEntity
  8
Hidden
370
    -3
100
AcDbLine
 10
-18.28762691730685
 20
-59.57301135869287
 30
-0.0000000000000015
 11
-13.41211747920045
 21
-51.9285213465484
 31
-0.0000000000000009
  0
LINE
  5
1C3
330
1F
100
AcDbEntity
  8
Hidden
370
    -3
100
AcDbLine
 10
-18.80808447607875
 20
-48.48707685787794
 30
-0.0000000000000022
 11
-23.68359391418516
 21
-56.13156687002243
 31
-0.0000000000000038
  0
LINE
  5
1C4
330
1F
100
AcDbEntity
  8
Hidden
370
    -3
100
AcDbLine
 10
-14.10881101182055
 20
-72.97775693036122
 30
-0.0000000000000017
 11
-9.233301573714149
 21
-65.33326691821676
 31
0.0000000000000019
  0
LINE
  5
1C5
330
1F
100
AcDbEntity
  8
Hidden
370
    -3
100
AcDbLine
 10
-14.62926857059245
 20
-61.89182242954633
 30
-0.0000000000000052
 11
-19.50477800869885
 21
-69.53631244169078
 31
-0.0000000000000061
  0
LINE
  5
1C6
330
1F
100
AcDbEntity
  8
0
100
AcDbLine
 10
0.0
 20
0.0
 30
0.0
 11
-5.85061254626057
 21
-9.173389928291629
 31
-0.0000000000000006
  0
LINE
  5
1C7
330
1F
100
AcDbEntity
  8
0
100
AcDbLine
 10
10.44703976371577
 20
-33.5118639291709
 30
-0.0000000000000035
 11
4.5964272174552
 21
-42.68525385746253
 31
-0.0000000000000018
  0
LINE
  5
1C8
330
1F
100
AcDbEntity
  8
0
100
AcDbLine
 10
-29.25306273130287
 20
-45.86694964145818
 30
-0.0000000000000009
 11
-23.4024501850423
 21
-36.69355971316655
 31
0.0000000000000014
  0
LINE
  5
1C9
330
1F
100
AcDbEntity
  8
0
100
AcDbLine
 10
-18.80602296758708
 20
-79.37881357062903
 30
-0.000000000000003
 11
-12.9554104213265
 21
-70.20542364233742
 31
0.0000000000000004
  0
LINE
  5
1CA
330
1F
100
AcDbEntity
  8
0
100
AcDbLine
 10
-5.85061254626057
 20
-9.173389928291627
 30
-0.0000000000000003
 11
-0.6270926644026796
 21
-25.92932189287708
 31
0.0000000000000002
  0
LINE
  5
1CB
330
1F
100
AcDbEntity
  8
0
100
AcDbLine
 10
4.596427217455203
 20
-42.68525385746254
 30
-0.0000000000000009
 11
-0.6270926644026796
 21
-25.92932189287708
 31
-0.0000000000000009
  0
LINE
  5
1CC
330
1F
100
AcDbEntity
  8
0
100
AcDbLine
 10
-23.4024501850423
 20
-36.69355971316655
 30
-0.0000000000000004
 11
-18.17893030318441
 21
-53.44949167775198
 31
0.0000000000000005
  0
LINE
  5
1CD
330
1F
100
AcDbEntity
  8
0
100
AcDbLine
 10
-12.9554104213265
 20
-70.20542364233744
 30
0.0000000000000017
 11
-18.1789303031844
 21
-53.44949167775199
 31
0.0000000000000003
  0
LINE
  5
1CE
330
1F
100
AcDbEntity
  8
0
100
AcDbLine
 10
0.0
 20
0.0
 30
0.0
 11
2.089407952743166
 21
-6.702372785834163
 31
0.0
  0
LINE
  5
1CF
330
1F
100
AcDbEntity
  8
0
100
AcDbLine
 10
10.44703976371577
 20
-33.5118639291709
 30
-0.0000000000000035
 11
8.35763181097263
 21
-26.8094911433367
 31
-0.0000000000000019
  0
LINE
  5
1D0
330
1F
100
AcDbEntity
  8
0
100
AcDbLine
 10
-29.25306273130287
 20
-45.86694964145818
 30
-0.0000000000000009
 11
-27.16365477855972
 21
-52.56932242729238
 31
0.0000000000000038
  0
LINE
  5
1D1
330
1F
100
AcDbEntity
  8
0
100
AcDbLine
 10
-18.80602296758708
 20
-79.37881357062903
 30
-0.000000000000003
 11
-20.89543092033025
 21
-72.67644078479488
 31
0.0000000000000007
  0
LINE
  5
1D2
330
1F
100
AcDbEntity
  8
0
100
AcDbLine
 10
2.089407952743166
 20
-6.702372785834164
 30
-0.0000000000000002
 11
-12.53712341290826
 21
-29.63584760656329
 31
-0.0000000000000013
  0
LINE
  5
1D3
330
1F
100
AcDbEntity
  8
0
100
AcDbLine
 10
8.357631810972634
 20
-26.8094911433367
 30
-0.0000000000000017
 11
-6.268899554678816
 21
-49.74296596406576
 31
-0.0000000000000025
  0
LINE
  5
1D4
330
1F
100
AcDbEntity
  8
0
100
AcDbLine
 10
-27.16365477855972
 20
-52.56932242729238
 30
0.0000000000000004
 11
-12.53712341290827
 21
-29.63584760656331
 31
-0.0000000000000041
  0
LINE
  5
1D5
330
1F
100
AcDbEntity
  8
0
100
AcDbLine
 10
-20.89543092033025
 20
-72.6764407847949
 30
0.0000000000000022
 11
-6.268899554678827
 21
-49.74296596406577
 31
0.0000000000000029
  0
LINE
  5
1D6
330
1F
100
AcDbEntity
  8
0
100
AcDbLine
 10
-5.85061254626057
 20
-9.173389928291627
 30
-0.0000000000000003
 11
-11.70122509252114
 21
-18.34677985658326
 31
-0.0000000000000009
  0
LINE
  5
1D7
330
1F
100
AcDbEntity
  8
0
100
AcDbLine
 10
4.596427217455203
 20
-42.68525385746254
 30
-0.0000000000000009
 11
-1.254185328805366
 21
-51.85864378575417
 31
-0.0000000000000004
  0
LINE
  5
1D8
330
1F
100
AcDbEntity
  8
0
100
AcDbLine
 10
-23.4024501850423
 20
-36.69355971316655
 30
-0.0000000000000004
 11
-17.55183763878173
 21
-27.52016978487492
 31
0.0000000000000002
  0
LINE
  5
1D9
330
1F
100
AcDbEntity
  8
0
100
AcDbLine
 10
-12.9554104213265
 20
-70.20542364233744
 30
0.0000000000000017
 11
-7.104797875065939
 21
-61.0320337140458
 31
-0.0000000000000017
  0
LINE
  5
1DA
330
1F
100
AcDbEntity
  8
0
100
AcDbLine
 10
-11.70122509252114
 20
-18.34677985658325
 30
-0.0000000000000007
 11
-9.611817139777974
 21
-25.04915264241746
 31
0.0000000000000019
  0
LINE
  5
1DB
330
1F
100
AcDbEntity
  8
0
100
AcDbLine
 10
-1.25418532880537
 20
-51.85864378575415
 30
0.0000000000000017
 11
-3.343593281548532
 21
-45.15627099991995
 31
0.0000000000000025
  0
LINE
  5
1DC
330
1F
100
AcDbEntity
  8
0
100
AcDbLine
 10
-17.55183763878173
 20
-27.52016978487492
 30
0.0000000000000009
 11
-15.46242968603856
 21
-34.22254257070913
 31
-0.0000000000000003
  0
LINE
  5
1DD
330
1F
100
AcDbEntity
  8
0
100
AcDbLine
 10
-7.104797875065934
 20
-61.03203371404578
 30
0.0000000000000009
 11
-9.1942058278091
 21
-54.32966092821158
 31
0.0000000000000009
  0
LINE
  5
1DE
330
1F
100
AcDbEntity
  8
0
100
AcDbLine
 10
2.089407952743166
 20
-6.702372785834164
 30
-0.0000000000000002
 11
4.178815905486332
 21
-13.40474557166833
 31
-0.0000000000000002
  0
LINE
  5
1DF
330
1F
100
AcDbEntity
  8
0
100
AcDbLine
 10
8.357631810972634
 20
-26.8094911433367
 30
-0.0000000000000017
 11
6.26822385822949
 21
-20.10711835750251
 31
-0.0000000000000004
  0
LINE
  5
1E0
330
1F
100
AcDbEntity
  8
0
100
AcDbLine
 10
-27.16365477855972
 20
-52.56932242729238
 30
0.0000000000000004
 11
-25.07424682581657
 21
-59.27169521312657
 31
-0.0000000000000025
  0
LINE
  5
1E1
330
1F
100
AcDbEntity
  8
0
100
AcDbLine
 10
-20.89543092033025
 20
-72.6764407847949
 30
0.0000000000000022
 11
-22.98483887307342
 21
-65.97406799896078
 31
0.0000000000000035
  0
LINE
  5
1E2
330
1F
100
AcDbEntity
  8
0
100
AcDbLine
 10
4.178815905486332
 20
-13.40474557166833
 30
-0.0000000000000004
 11
-1.671796640774251
 21
-22.57813549995999
 31
-0.0000000000000007
  0
LINE
  5
1E3
330
1F
100
AcDbEntity
  8
0
100
AcDbLine
 10
6.268223858229487
 20
-20.1071183575025
 30
0.0
 11
0.4176113119688943
 21
-29.28050828579416
 31
0.0000000000000038
  0
LINE
  5
1E4
330
1F
100
AcDbEntity
  8
0
100
AcDbLine
 10
-25.07424682581657
 20
-59.27169521312656
 30
0.0000000000000012
 11
-19.22363427955598
 21
-50.09830528483491
 31
-0.0000000000000045
  0
LINE
  5
1E5
330
1F
100
AcDbEntity
  8
0
100
AcDbLine
 10
-22.98483887307341
 20
-65.97406799896075
 30
0.0000000000000041
 11
-17.13422632681283
 21
-56.80067807066906
 31
0.0000000000000016
  0
LINE
  5
1E6
330
1F
100
AcDbEntity
  8
0
100
AcDbLine
 10
-28.76551168578114
 20
-45.10250048076718
 30
0.0000000000000009
 11
-23.54199180392324
 21
-61.85843244535259
 31
-0.0000000000000006
  0
LINE
  5
1E7
330
1F
100
AcDbEntity
  8
0
100
AcDbLine
 10
-18.31847192206537
 20
-78.61436440993809
 30
-0.0000000000000043
 11
-23.54199180392324
 21
-61.85843244535259
 31
-0.0000000000000038
  0
LINE
  5
1E8
330
1F
100
AcDbEntity
  8
0
100
AcDbLine
 10
-23.89000123056399
 20
-37.45800887385749
 30
0.0000000000000013
 11
-18.6664813487061
 21
-54.21394083844293
 31
-0.0000000000000041
  0
LINE
  5
1E9
330
1F
100
AcDbEntity
  8
0
100
AcDbLine
 10
-13.44296146684822
 20
-70.9698728030284
 30
0.0000000000000009
 11
-18.6664813487061
 21
-54.21394083844293
 31
-0.0000000000000045
  0
LINE
  5
1EA
330
1F
100
AcDbEntity
  8
0
100
AcDbLine
 10
-5.363061500738855
 20
-8.408940767600656
 30
0.0000000000000007
 11
-0.1395416188809681
 21
-25.1648727321861
 31
-0.0000000000000013
  0
LINE
  5
1EB
330
1F
100
AcDbEntity
  8
0
100
AcDbLine
 10
5.083978262976923
 20
-41.92080469677155
 30
0.0000000000000017
 11
-0.1395416188809629
 21
-25.1648727321861
 31
-0.0000000000000017
  0
LINE
  5
1EC
330
1F
100
AcDbEntity
  8
0
100
AcDbLine
 10
-0.4875510455217147
 20
-0.7644491606909697
 30
0.0
 11
4.735968836336168
 21
-17.52038112527643
 31
0.0
  0
LINE
  5
1ED
330
1F
100
AcDbEntity
  8
0
100
AcDbLine
 10
9.959488718194056
 20
-34.27631308986188
 30
-0.0000000000000017
 11
4.735968836336168
 21
-17.52038112527643
 31
0.0000000000000012
  0
LINE
  5
1EE
330
1F
100
AcDbEntity
  8
0
100
AcDbLine
 10
-18.80602296758708
 20
-79.37881357062903
 30
-0.000000000000003
 11
-12.9554104213265
 21
-70.20542364233742
 31
0.0000000000000004
  0
LINE
  5
1EF
330
1F
100
AcDbEntity
  8
0
100
AcDbLine
 10
10.44703976371578
 20
-33.51186392917091
 30
-0.0000000000000017
 11
4.596427217455205
 21
-42.68525385746254
 31
-0.000000000000002
  0
LINE
  5
1F0
330
1F
100
AcDbEntity
  8
0
100
AcDbLine
 10
-12.9554104213265
 20
-70.20542364233744
 30
0.0000000000000017
 11
-2.688730956156083
 21
-74.0689862810463
 31
0.0000000000000005
  0
LINE
  5
1F1
330
1F
100
AcDbEntity
  8
0
100
AcDbLine
 10
4.596427217455205
 20
-42.68525385746254
 30
0.0
 11
14.86310668262563
 21
-46.54881649617141
 31
-0.000000000000003
  0
LINE
  5
1F2
330
1F
100
AcDbEntity
  8
0
100
AcDbLine
 10
-12.9554104213265
 20
-70.20542364233744
 30
0.0000000000000017
 11
-7.104797875065939
 21
-61.0320337140458
 31
-0.0000000000000017
  0
LINE
  5
1F3
330
1F
100
AcDbEntity
  8
0
100
AcDbLine
 10
4.596427217455205
 20
-42.68525385746254
 30
0.0
 11
-1.254185328805366
 21
-51.85864378575416
 31
-0.0000000000000008
  0
LINE
  5
1F4
330
1F
100
AcDbEntity
  8
0
100
AcDbLine
 10
-7.104797875065939
 20
-61.0320337140458
 30
-0.0000000000000035
 11
3.161881590104483
 21
-64.89559635275467
 31
-0.0000000000000016
  0
LINE
  5
1F5
330
1F
100
AcDbEntity
  8
0
100
AcDbLine
 10
-1.254185328805365
 20
-51.85864378575415
 30
0.0
 11
9.012494136365056
 21
-55.72220642446303
 31
-0.0000000000000006
  0
LINE
  5
1F6
330
1F
100
AcDbEntity
  8
0
100
AcDbLine
 10
-12.46785937580479
 20
-69.44097448164646
 30
0.0
 11
-2.201179910634373
 21
-73.30453712035532
 31
-0.0000000000000043
  0
LINE
  5
1F7
330
1F
100
AcDbEntity
  8
0
100
AcDbLine
 10
4.108876171933491
 20
-43.44970301815351
 30
-0.0000000000000017
 11
14.37555563710391
 21
-47.31326565686238
 31
0.0000000000000019
  0
LINE
  5
1F8
330
1F
100
AcDbEntity
  8
0
100
AcDbLine
 10
-7.592348920587646
 20
-61.79648287473676
 30
-0.0000000000000009
 11
2.674330544582777
 21
-65.66004551344564
 31
0.000000000000004
  0
LINE
  5
1F9
330
1F
100
AcDbEntity
  8
0
100
AcDbLine
 10
-0.7666342832836557
 20
-51.0941946250632
 30
-0.0000000000000035
 11
9.500045181886774
 21
-54.95775726377207
 31
0.0000000000000002
  0
LINE
  5
1FA
330
1F
100
AcDbEntity
  8
0
100
AcDbLine
 10
-6.617246829544223
 20
-60.26758455335482
 30
-0.0000000000000026
 11
3.649432635626202
 21
-64.1311471920637
 31
-0.0000000000000026
  0
LINE
  5
1FB
330
1F
100
AcDbEntity
  8
0
100
AcDbLine
 10
-1.741736374327082
 20
-52.62309294644513
 30
-0.0000000000000035
 11
8.524943090843339
 21
-56.486655585154
 31
-0.0000000000000035
  0
LINE
  5
1FC
330
1F
100
AcDbEntity
  8
0
100
AcDbLine
 10
-8.539343502416655
 20
-83.24237620933792
 30
-0.0000000000000017
 11
-10.6287514551598
 21
-76.54000342350373
 31
0.000000000000007
  0
LINE
  5
1FD
330
1F
100
AcDbEntity
  8
0
100
AcDbLine
 10
-18.98638326613243
 20
-49.73051228016702
 30
-0.000000000000001
 11
-16.89697531338927
 21
-56.4328850660012
 31
0.0000000000000023
  0
LINE
  5
1FE
330
1F
100
AcDbEntity
  8
0
100
AcDbLine
 10
-10.62875145515981
 20
-76.54000342350373
 30
0.0000000000000035
 11
-20.89543092033025
 21
-72.67644078479489
 31
0.0000000000000023
  0
LINE
  5
1FF
330
1F
100
AcDbEntity
  8
0
100
AcDbLine
 10
-16.89697531338927
 20
-56.4328850660012
 30
0.000000000000002
 11
-27.16365477855972
 21
-52.56932242729234
 31
0.0000000000000007
  0
LINE
  5
200
330
1F
100
AcDbEntity
  8
0
100
AcDbLine
 10
-10.62875145515981
 20
-76.54000342350373
 30
0.0000000000000035
 11
-12.71815940790295
 21
-69.83763063766952
 31
0.0000000000000007
  0
LINE
  5
201
330
1F
100
AcDbEntity
  8
0
100
AcDbLine
 10
-16.89697531338927
 20
-56.4328850660012
 30
0.000000000000002
 11
-14.80756736064611
 21
-63.13525785183536
 31
-0.0000000000000023
  0
LINE
  5
202
330
1F
100
AcDbEntity
  8
0
100
AcDbLine
 10
-12.71815940790297
 20
-69.83763063766956
 30
0.0
 11
-22.98483887307341
 21
-65.97406799896076
 31
0.000000000000003
  0
LINE
  5
203
330
1F
100
AcDbEntity
  8
0
100
AcDbLine
 10
-14.80756736064612
 20
-63.13525785183539
 30
-0.0000000000000004
 11
-25.07424682581658
 21
-59.27169521312655
 31
0.0000000000000014
  0
LINE
  5
204
330
1F
100
AcDbEntity
  8
0
100
AcDbLine
 10
-21.06954824972551
 20
-72.1179097193087
 30
0.0000000000000043
 11
-10.80286878455508
 21
-75.98147235801756
 31
-0.0000000000000054
  0
LINE
  5
205
330
1F
100
AcDbEntity
  8
0
100
AcDbLine
 10
-26.98953744916445
 20
-53.12785349277852
 30
0.0000000000000004
 11
-16.722857983994
 21
-56.99141613148738
 31
-0.0000000000000038
  0
LINE
  5
206
330
1F
100
AcDbEntity
  8
0
100
AcDbLine
 10
-12.5440420785077
 20
-70.39616170315571
 30
-0.0000000000000069
 11
-22.81072154367815
 21
-66.5325990644469
 31
0.0000000000000004
  0
LINE
  5
207
330
1F
100
AcDbEntity
  8
0
100
AcDbLine
 10
-14.98168469004137
 20
-62.57672678634918
 30
-0.0000000000000022
 11
-25.24836415521183
 21
-58.71316414764038
 31
-0.0000000000000016
  0
ENDSEC
  0
SECTION
  2
OBJECTS
  0
DICTIONARY
  5
C
330
0
100
AcDbDictionary
281
     1
  3
ACAD_DETAILVIEWSTYLE
350
243
  3
ACAD_GROUP
350
D
  3
ACAD_LAYOUT
350
1A
  3
ACAD_MATERIAL
350
43
  3
ACAD_MLEADERSTYLE
350
6B
  3
ACAD_MLINESTYLE
350
17
  3
ACAD_PLOTSETTINGS
350
19
  3
ACAD_PLOTSTYLENAME
350
E
  3
ACAD_SCALELIST
350
47
  3
ACAD_SECTIONVIEWSTYLE
350
244
  3
ACAD_TABLESTYLE
350
69
  3
ACAD_VISUALSTYLE
350
2A
  3
ACDB_RECOMPOSE_DATA
350
240
  3
AcDbVariableDictionary
350
208
  0
SUN
  5
6D
330
29
100
AcDbSun
 90
        1
290
     0
 63
     7
421
 16777215
 40
1.0
291
     1
 91
  2455826
 92
 54000000
292
     0
 70
     2
 71
   256
280
     1
  0
DICTIONARY
  5
243
102
{ACAD_REACTORS
330
C
102
}
330
C
100
AcDbDictionary
281
     1
  0
DICTIONARY
  5
D
102
{ACAD_REACTORS
330
C
102
}
330
C
100
AcDbDictionary
281
     1
  0
DICTIONARY
  5
1A
102
{ACAD_REACTORS
330
C
102
}
330
C
100
AcDbDictionary
281
     1
  3
Layout1
350
1E
  3
Layout2
350
26
  3
Model
350
22
  0
DICTIONARY
  5
43
102
{ACAD_REACTORS
330
C
102
}
330
C
100
AcDbDictionary
281
     1
  3
ByBlock
350
45
  3
ByLayer
350
44
  3
Global
350
46
  0
DICTIONARY
  5
6B
102
{ACAD_REACTORS
330
C
102
}
330
C
100
AcDbDictionary
281
     1
  3
Standard
350
6C
  0
DICTIONARY
  5
17
102
{ACAD_REACTORS
330
C
102
}
330
C
100
AcDbDictionary
281
     1
  3
Standard
350
18
  0
DICTIONARY
  5
19
102
{ACAD_REACTORS
330
C
102
}
330
C
100
AcDbDictionary
281
     1
  0
ACDBDICTIONARYWDFLT
  5
E
102
{ACAD_REACTORS
330
C
102
}
330
C
100
AcDbDictionary
281
     1
  3
Normal
350
F
100
AcDbDictionaryWithDefault
340
F
  0
DICTIONARY
  5
47
102
{ACAD_REACTORS
330
C
102
}
330
C
100
AcDbDictionary
281
     1
  3
A0
350
48
  3
A1
350
49
  3
A2
350
4A
  3
A3
350
4B
  3
A4
350
4C
  3
A5
350
4D
  3
A6
350
4E
  3
A7
350
4F
  3
A8
350
50
  3
A9
350
51
  3
B0
350
52
  3
B1
350
53
  3
B2
350
54
  3
B3
350
55
  3
B4
350
56
  3
B5
350
57
  3
B6
350
58
  3
B7
350
59
  3
B8
350
5A
  3
B9
350
5B
  3
C0
350
5C
  3
C1
350
5D
  3
C2
350
5E
  3
C3
350
5F
  3
C4
350
60
  3
C5
350
61
  3
C6
350
62
  3
C7
350
63
  3
C8
350
64
  3
C9
350
65
  3
D0
350
66
  3
D1
350
67
  3
D2
350
68
  0
DICTIONARY
  5
244
102
{ACAD_REACTORS
330
C
102
}
330
C
100
AcDbDictionary
281
     1
  0
DICTIONARY
  5
69
102
{ACAD_REACTORS
330
C
102
}
330
C
100
AcDbDictionary
281
     1
  3
Standard
350
6A
  0
DICTIONARY
  5
2A
102
{ACAD_REACTORS
330
C
102
}
330
C
100
AcDbDictionary
281
     1
  3
2dWireframe
350
2F
  3
Basic
350
32
  3
Brighten
350
36
  3
ColorChange
350
3A
  3
Conceptual
350
34
  3
Dim
350
35
  3
EdgeColorOff
350
3D
  3
Facepattern
350
39
  3
Flat
350
2B
  3
FlatWithEdges
350
2C
  3
Gouraud
350
2D
  3
GouraudWithEdges
350
2E
  3
Hidden
350
31
  3
JitterOff
350
3B
  3
Linepattern
350
38
  3
OverhangOff
350
3C
  3
Realistic
350
33
  3
Shaded
350
42
  3
Shaded with edges
350
41
  3
Shades of Gray
350
3E
  3
Sketchy
350
3F
  3
Thicken
350
37
  3
Wireframe
350
30
  3
X-Ray
350
40
  0
XRECORD
  5
240
102
{ACAD_REACTORS
330
C
102
}
330
C
100
AcDbXrecord
280
     1
 90
        1
330
6A
  0
DICTIONARY
  5
208
102
{ACAD_REACTORS
330
C
102
}
330
C
100
AcDbDictionary
281
     1
  3
CANNOSCALE
350
209
  3
CENTEREXE
350
245
  3
CENTERLTYPEFILE
350
246
  3
CMLEADERSTYLE
350
242
  3
CTABLESTYLE
350
241
  3
XCLIPFRAME
350
20A
  0
LAYOUT
  5
1E
102
{ACAD_REACTORS
330
1A
102
}
330
1A
100
AcDbPlotSettings
  1

  2
none_device
  4

  6

 40
0.0
 41
0.0
 42
0.0
 43
0.0
 44
0.0
 45
0.0
 46
0.0
 47
0.0
 48
0.0
 49
0.0
140
0.0
141
0.0
142
1.0
143
1.0
 70
   688
 72
     1
 73
     0
 74
     5
  7

 75
    16
 76
     0
 77
     2
 78
   300
147
1.0
148
0.0
149
0.0
100
AcDbLayout
  1
Layout1
 70
     1
 71
     1
 10
0.0
 20
0.0
 11
420.0
 21
297.0
 12
0.0
 22
0.0
 32
0.0
 14
1.000000000000000E+20
 24
1.000000000000000E+20
 34
1.000000000000000E+20
 15
-1.000000000000000E+20
 25
-1.000000000000000E+20
 35
-1.000000000000000E+20
146
0.0
 13
0.0
 23
0.0
 33
0.0
 16
1.0
 26
0.0
 36
0.0
 17
0.0
 27
1.0
 37
0.0
 76
     0
330
1B
  0
LAYOUT
  5
26
102
{ACAD_REACTORS
330
1A
102
}
330
1A
100
AcDbPlotSettings
  1

  2
none_device
  4

  6

 40
0.0
 41
0.0
 42
0.0
 43
0.0
 44
0.0
 45
0.0
 46
0.0
 47
0.0
 48
0.0
 49
0.0
140
0.0
141
0.0
142
1.0
143
1.0
 70
   688
 72
     1
 73
     0
 74
     5
  7

 75
    16
 76
     0
 77
     2
 78
   300
147
1.0
148
0.0
149
0.0
100
AcDbLayout
  1
Layout2
 70
     1
 71
     2
 10
0.0
 20
0.0
 11
0.0
 21
0.0
 12
0.0
 22
0.0
 32
0.0
 14
0.0
 24
0.0
 34
0.0
 15
0.0
 25
0.0
 35
0.0
146
0.0
 13
0.0
 23
0.0
 33
0.0
 16
1.0
 26
0.0
 36
0.0
 17
0.0
 27
1.0
 37
0.0
 76
     0
330
23
  0
LAYOUT
  5
22
102
{ACAD_REACTORS
330
1A
102
}
330
1A
100
AcDbPlotSettings
  1

  2
none_device
  4
Letter_(8.50_x_11.00_Inches)
  6

 40
6.35
 41
6.35
 42
6.35000508
 43
6.35000508
 44
215.9
 45
279.4
 46
0.0
 47
0.0
 48
0.0
 49
0.0
140
0.0
141
0.0
142
1.0
143
1.0
 70
  1712
 72
     1
 73
     0
 74
     0
  7

 75
     0
 76
     0
 77
     2
 78
   300
147
1.0
148
0.0
149
0.0
100
AcDbLayout
  1
Model
 70
     1
 71
     0
 10
0.0
 20
0.0
 11
420.0
 21
297.0
 12
0.0
 22
0.0
 32
0.0
 14
-29.25306273130287
 24
-83.24237620933793
 34
-30.17272607544245
 15
20.7137192288862
 25
0.0000000000000056
 35
48.66019252086943
146
0.0
 13
0.0
 23
0.0
 33
0.0
 16
1.0
 26
0.0
 36
0.0
 17
0.0
 27
1.0
 37
0.0
 76
     0
330
1F
331
29
  0
MATERIAL
  5
45
102
{ACAD_REACTORS
330
43
102
}
330
43
100
AcDbMaterial
  1
ByBlock
 72
     1
 94
      127
  0
MATERIAL
  5
44
102
{ACAD_REACTORS
330
43
102
}
330
43
100
AcDbMaterial
  1
ByLayer
 72
     1
 94
      127
  0
MATERIAL
  5
46
102
{ACAD_REACTORS
330
43
102
}
330
43
100
AcDbMaterial
  1
Global
 72
     1
 94
      127
  0
MLEADERSTYLE
  5
6C
102
{ACAD_REACTORS
330
6B
102
}
102
{ACAD_XDICTIONARY
360
23E
102
}
330
6B
100
AcDbMLeaderStyle
170
     2
171
     1
172
     0
 90
        2
 40
0.0
 41
0.0
173
     1
 91
-1056964608
340
14
 92
       -2
290
     1
 42
2.0
291
     1
 43
8.0
  3
Standard
341
0
 44
4.0
300

342
11
174
     1
178
     6
175
     1
176
     0
 93
-1056964608
 45
4.0
292
     0
297
     0
 46
4.0
343
0
 94
-1056964608
 47
1.0
 49
1.0
140
1.0
293
     1
141
0.0
294
     1
177
     0
142
1.0
295
     0
296
     0
143
3.75
1001
ACAD_MLEADERVER
1070
     2
  0
MLINESTYLE
  5
18
102
{ACAD_REACTORS
330
17
102
}
330
17
100
AcDbMlineStyle
  2
Standard
 70
     0
  3

 62
   256
 51
90.0
 52
90.0
 71
     2
 49
0.5
 62
   256
  6
BYLAYER
 49
-0.5
 62
   256
  6
BYLAYER
  0
ACDBPLACEHOLDER
  5
F
102
{ACAD_REACTORS
330
E
102
}
330
E
  0
SCALE
  5
48
102
{ACAD_REACTORS
330
47
102
}
330
47
100
AcDbScale
 70
     0
300
1:1
140
1.0
141
1.0
290
     1
  0
SCALE
  5
49
102
{ACAD_REACTORS
330
47
102
}
330
47
100
AcDbScale
 70
     0
300
1:2
140
1.0
141
2.0
290
     0
  0
SCALE
  5
4A
102
{ACAD_REACTORS
330
47
102
}
330
47
100
AcDbScale
 70
     0
300
1:4
140
1.0
141
4.0
290
     0
  0
SCALE
  5
4B
102
{ACAD_REACTORS
330
47
102
}
330
47
100
AcDbScale
 70
     0
300
1:5
140
1.0
141
5.0
290
     0
  0
SCALE
  5
4C
102
{ACAD_REACTORS
330
47
102
}
330
47
100
AcDbScale
 70
     0
300
1:8
140
1.0
141
8.0
290
     0
  0
SCALE
  5
4D
102
{ACAD_REACTORS
330
47
102
}
330
47
100
AcDbScale
 70
     0
300
1:10
140
1.0
141
10.0
290
     0
  0
SCALE
  5
4E
102
{ACAD_REACTORS
330
47
102
}
330
47
100
AcDbScale
 70
     0
300
1:16
140
1.0
141
16.0
290
     0
  0
SCALE
  5
4F
102
{ACAD_REACTORS
330
47
102
}
330
47
100
AcDbScale
 70
     0
300
1:20
140
1.0
141
20.0
290
     0
  0
SCALE
  5
50
102
{ACAD_REACTORS
330
47
102
}
330
47
100
AcDbScale
 70
     0
300
1:30
140
1.0
141
30.0
290
     0
  0
SCALE
  5
51
102
{ACAD_REACTORS
330
47
102
}
330
47
100
AcDbScale
 70
     0
300
1:40
140
1.0
141
40.0
290
     0
  0
SCALE
  5
52
102
{ACAD_REACTORS
330
47
102
}
330
47
100
AcDbScale
 70
     0
300
1:50
140
1.0
141
50.0
290
     0
  0
SCALE
  5
53
102
{ACAD_REACTORS
330
47
102
}
330
47
100
AcDbScale
 70
     0
300
1:100
140
1.0
141
100.0
290
     0
  0
SCALE
  5
54
102
{ACAD_REACTORS
330
47
102
}
330
47
100
AcDbScale
 70
     0
300
2:1
140
2.0
141
1.0
290
     0
  0
SCALE
  5
55
102
{ACAD_REACTORS
330
47
102
}
330
47
100
AcDbScale
 70
     0
300
4:1
140
4.0
141
1.0
290
     0
  0
SCALE
  5
56
102
{ACAD_REACTORS
330
47
102
}
330
47
100
AcDbScale
 70
     0
300
8:1
140
8.0
141
1.0
290
     0
  0
SCALE
  5
57
102
{ACAD_REACTORS
330
47
102
}
330
47
100
AcDbScale
 70
     0
300
10:1
140
10.0
141
1.0
290
     0
  0
SCALE
  5
58
102
{ACAD_REACTORS
330
47
102
}
330
47
100
AcDbScale
 70
     0
300
100:1
140
100.0
141
1.0
290
     0
  0
SCALE
  5
59
102
{ACAD_REACTORS
330
47
102
}
330
47
100
AcDbScale
 70
     0
300
1/128" = 1'-0"
140
0.0078125
141
12.0
290
     0
  0
SCALE
  5
5A
102
{ACAD_REACTORS
330
47
102
}
330
47
100
AcDbScale
 70
     0
300
1/64" = 1'-0"
140
0.015625
141
12.0
290
     0
  0
SCALE
  5
5B
102
{ACAD_REACTORS
330
47
102
}
330
47
100
AcDbScale
 70
     0
300
1/32" = 1'-0"
140
0.03125
141
12.0
290
     0
  0
SCALE
  5
5C
102
{ACAD_REACTORS
330
47
102
}
330
47
100
AcDbScale
 70
     0
300
1/16" = 1'-0"
140
0.0625
141
12.0
290
     0
  0
SCALE
  5
5D
102
{ACAD_REACTORS
330
47
102
}
330
47
100
AcDbScale
 70
     0
300
3/32" = 1'-0"
140
0.09375
141
12.0
290
     0
  0
SCALE
  5
5E
102
{ACAD_REACTORS
330
47
102
}
330
47
100
AcDbScale
 70
     0
300
1/8" = 1'-0"
140
0.125
141
12.0
290
     0
  0
SCALE
  5
5F
102
{ACAD_REACTORS
330
47
102
}
330
47
100
AcDbScale
 70
     0
300
3/16" = 1'-0"
140
0.1875
141
12.0
290
     0
  0
SCALE
  5
60
102
{ACAD_REACTORS
330
47
102
}
330
47
100
AcDbScale
 70
     0
300
1/4" = 1'-0"
140
0.25
141
12.0
290
     0
  0
SCALE
  5
61
102
{ACAD_REACTORS
330
47
102
}
330
47
100
AcDbScale
 70
     0
300
3/8" = 1'-0"
140
0.375
141
12.0
290
     0
  0
SCALE
  5
62
102
{ACAD_REACTORS
330
47
102
}
330
47
100
AcDbScale
 70
     0
300
1/2" = 1'-0"
140
0.5
141
12.0
290
     0
  0
SCALE
  5
63
102
{ACAD_REACTORS
330
47
102
}
330
47
100
AcDbScale
 70
     0
300
3/4" = 1'-0"
140
0.75
141
12.0
290
     0
  0
SCALE
  5
64
102
{ACAD_REACTORS
330
47
102
}
330
47
100
AcDbScale
 70
     0
300
1" = 1'-0"
140
1.0
141
12.0
290
     0
  0
SCALE
  5
65
102
{ACAD_REACTORS
330
47
102
}
330
47
100
AcDbScale
 70
     0
300
1-1/2" = 1'-0"
140
1.5
141
12.0
290
     0
  0
SCALE
  5
66
102
{ACAD_REACTORS
330
47
102
}
330
47
100
AcDbScale
 70
     0
300
3" = 1'-0"
140
3.0
141
12.0
290
     0
  0
SCALE
  5
67
102
{ACAD_REACTORS
330
47
102
}
330
47
100
AcDbScale
 70
     0
300
6" = 1'-0"
140
6.0
141
12.0
290
     0
  0
SCALE
  5
68
102
{ACAD_REACTORS
330
47
102
}
330
47
100
AcDbScale
 70
     0
300
1'-0" = 1'-0"
140
12.0
141
12.0
290
     0
  0
TABLESTYLE
  5
6A
102
{ACAD_REACTORS
330
69
102
}
102
{ACAD_XDICTIONARY
360
23B
102
}
330
69
100
AcDbTableStyle
  3
Standard
 70
     0
 71
     0
 40
0.06
 41
0.06
280
     0
281
     0
  7
Standard
140
4.5
170
     2
 62
     0
 63
   257
283
     0
 90
        4
 91
        0
  1

274
    -2
284
     1
 64
     0
275
    -2
285
     1
 65
     0
276
    -2
286
     1
 66
     0
277
    -2
287
     1
 67
     0
278
    -2
288
     1
 68
     0
279
    -2
289
     1
 69
     0
  7
Standard
140
6.0
170
     5
 62
     0
 63
   257
283
     0
 90
        4
 91
        0
  1

274
    -2
284
     1
 64
     0
275
    -2
285
     1
 65
     0
276
    -2
286
     1
 66
     0
277
    -2
287
     1
 67
     0
278
    -2
288
     1
 68
     0
279
    -2
289
     1
 69
     0
  7
Standard
140
4.5
170
     5
 62
     0
 63
   257
283
     0
 90
        4
 91
        0
  1

274
    -2
284
     1
 64
     0
275
    -2
285
     1
 65
     0
276
    -2
286
     1
 66
     0
277
    -2
287
     1
 67
     0
278
    -2
288
     1
 68
     0
279
    -2
289
     1
 69
     0
  0
VISUALSTYLE
  5
2F
102
{ACAD_REACTORS
330
2A
102
}
102
{ACAD_XDICTIONARY
360
213
102
}
330
2A
100
AcDbVisualStyle
  2
2dWireframe
 70
     4
 71
     0
 72
     2
 73
     0
 90
        0
 40
0.6
 41
30.0
 62
     5
 63
     7
421
 16777215
 74
     1
 91
        4
 64
     7
 65
   257
 75
     1
175
     1
 42
1.0
 92
        0
 66
   257
 43
1.0
 76
     1
 77
     6
 78
     2
 67
     7
 79
     5
170
     0
171
     0
290
     0
174
     0
 93
        1
 44
0.0
173
     0
291
     0
 45
0.0
  0
VISUALSTYLE
  5
32
102
{ACAD_REACTORS
330
2A
102
}
102
{ACAD_XDICTIONARY
360
219
102
}
330
2A
100
AcDbVisualStyle
  2
Basic
 70
     7
 71
     1
 72
     0
 73
     1
 90
        0
 40
0.6
 41
30.0
 62
     5
 63
     7
421
 16777215
 74
     0
 91
        4
 64
     7
 65
   257
 75
     1
175
     1
 42
1.0
 92
        8
 66
     7
 43
1.0
 76
     1
 77
     6
 78
     2
 67
     7
 79
     5
170
     0
171
     0
290
     0
174
     0
 93
        1
 44
0.0
173
     0
291
     1
 45
0.0
  0
VISUALSTYLE
  5
36
102
{ACAD_REACTORS
330
2A
102
}
102
{ACAD_XDICTIONARY
360
221
102
}
330
2A
100
AcDbVisualStyle
  2
Brighten
 70
    12
 71
     2
 72
     2
 73
     0
 90
        0
 40
0.6
 41
30.0
 62
     5
 63
     7
421
 16777215
 74
     1
 91
        4
 64
     7
 65
   257
 75
     1
175
     1
 42
1.0
 92
        8
 66
     7
 43
1.0
 76
     1
 77
     6
 78
     2
 67
     7
 79
     5
170
     0
171
     0
290
     0
174
     0
 93
        1
 44
50.0
173
     0
291
     1
 45
0.0
  0
VISUALSTYLE
  5
3A
102
{ACAD_REACTORS
330
2A
102
}
102
{ACAD_XDICTIONARY
360
229
102
}
330
2A
100
AcDbVisualStyle
  2
ColorChange
 70
    16
 71
     2
 72
     2
 73
     3
 90
        0
 40
0.6
 41
30.0
 62
     5
 63
     8
421
  8421504
 74
     1
 91
        4
 64
     7
 65
   257
 75
     1
175
     1
 42
1.0
 92
        8
 66
     8
424
  8421504
 43
1.0
 76
     1
 77
     6
 78
     2
 67
     7
 79
     5
170
     0
171
     0
290
     0
174
     0
 93
        1
 44
0.0
173
     0
291
     1
 45
0.0
  0
VISUALSTYLE
  5
34
102
{ACAD_REACTORS
330
2A
102
}
102
{ACAD_XDICTIONARY
360
21D
102
}
330
2A
100
AcDbVisualStyle
  2
Conceptual
 70
     9
 71
     3
 72
     2
 73
     0
 90
        0
 40
0.6
 41
30.0
 62
     5
 63
     7
421
 16777215
 74
     2
 91
        2
 64
     7
 65
   257
 75
     1
175
     1
 42
179.0
 92
        8
 66
     7
 43
1.0
 76
     1
 77
     6
 78
     2
 67
     7
 79
     3
170
     0
171
     0
290
     0
174
     0
 93
        1
 44
0.0
173
     0
291
     0
 45
0.0
  0
VISUALSTYLE
  5
35
102
{ACAD_REACTORS
330
2A
102
}
102
{ACAD_XDICTIONARY
360
21F
102
}
330
2A
100
AcDbVisualStyle
  2
Dim
 70
    11
 71
     2
 72
     2
 73
     0
 90
        0
 40
0.6
 41
30.0
 62
     5
 63
     7
421
 16777215
 74
     1
 91
        4
 64
     7
 65
   257
 75
     1
175
     1
 42
1.0
 92
        8
 66
     7
 43
1.0
 76
     1
 77
     6
 78
     2
 67
     7
 79
     5
170
     0
171
     0
290
     0
174
     0
 93
        1
 44
-50.0
173
     0
291
     1
 45
0.0
  0
VISUALSTYLE
  5
3D
102
{ACAD_REACTORS
330
2A
102
}
102
{ACAD_XDICTIONARY
360
22F
102
}
330
2A
100
AcDbVisualStyle
  2
EdgeColorOff
 70
    22
 71
     2
 72
     2
 73
     0
 90
        0
 40
0.6
 41
30.0
 62
     5
 63
     7
421
 16777215
 74
     1
 91
        4
 64
     7
 65
   257
 75
     1
175
     1
 42
1.0
 92
        8
 66
     7
 43
1.0
 76
     1
 77
     6
 78
     2
 67
     7
 79
     5
170
     0
171
     0
290
     0
174
     0
 93
        1
 44
0.0
173
     0
291
     1
 45
0.0
  0
VISUALSTYLE
  5
39
102
{ACAD_REACTORS
330
2A
102
}
102
{ACAD_XDICTIONARY
360
227
102
}
330
2A
100
AcDbVisualStyle
  2
Facepattern
 70
    15
 71
     2
 72
     2
 73
     0
 90
        0
 40
0.6
 41
30.0
 62
     5
 63
     7
421
 16777215
 74
     1
 91
        4
 64
     7
 65
   257
 75
     1
175
     1
 42
1.0
 92
        8
 66
     7
 43
1.0
 76
     1
 77
     6
 78
     2
 67
     7
 79
     5
170
     0
171
     0
290
     0
174
     0
 93
        1
 44
0.0
173
     0
291
     1
 45
0.0
  0
VISUALSTYLE
  5
2B
102
{ACAD_REACTORS
330
2A
102
}
102
{ACAD_XDICTIONARY
360
20B
102
}
330
2A
100
AcDbVisualStyle
  2
Flat
 70
     0
 71
     2
 72
     1
 73
     1
 90
        2
 40
0.6
 41
30.0
 62
     5
 63
     7
421
 16777215
 74
     0
 91
        0
 64
     7
 65
   257
 75
     1
175
     1
 42
1.0
 92
        8
 66
     7
 43
1.0
 76
     1
 77
     6
 78
     2
 67
     7
 79
     5
170
     0
171
     0
290
     0
174
     0
 93
       13
 44
0.0
173
     0
291
     1
 45
0.0
  0
VISUALSTYLE
  5
2C
102
{ACAD_REACTORS
330
2A
102
}
102
{ACAD_XDICTIONARY
360
20D
102
}
330
2A
100
AcDbVisualStyle
  2
FlatWithEdges
 70
     1
 71
     2
 72
     1
 73
     1
 90
        2
 40
0.6
 41
30.0
 62
     5
 63
     7
421
 16777215
 74
     1
 91
        0
 64
     7
 65
   257
 75
     1
175
     1
 42
1.0
 92
        0
 66
   257
 43
1.0
 76
     1
 77
     6
 78
     2
 67
     7
 79
     5
170
     0
171
     0
290
     0
174
     0
 93
       13
 44
0.0
173
     0
291
     1
 45
0.0
  0
VISUALSTYLE
  5
2D
102
{ACAD_REACTORS
330
2A
102
}
102
{ACAD_XDICTIONARY
360
20F
102
}
330
2A
100
AcDbVisualStyle
  2
Gouraud
 70
     2
 71
     2
 72
     2
 73
     1
 90
        2
 40
0.6
 41
30.0
 62
     5
 63
     7
421
 16777215
 74
     0
 91
        0
 64
     7
 65
   257
 75
     1
175
     1
 42
1.0
 92
        0
 66
     7
 43
1.0
 76
     1
 77
     6
 78
     2
 67
     7
 79
     5
170
     0
171
     0
290
     0
174
     0
 93
       13
 44
0.0
173
     0
291
     1
 45
0.0
  0
VISUALSTYLE
  5
2E
102
{ACAD_REACTORS
330
2A
102
}
102
{ACAD_XDICTIONARY
360
211
102
}
330
2A
100
AcDbVisualStyle
  2
GouraudWithEdges
 70
     3
 71
     2
 72
     2
 73
     1
 90
        2
 40
0.6
 41
30.0
 62
     5
 63
     7
421
 16777215
 74
     1
 91
        0
 64
     7
 65
   257
 75
     1
175
     1
 42
1.0
 92
        0
 66
   257
 43
1.0
 76
     1
 77
     6
 78
     2
 67
     7
 79
     5
170
     0
171
     0
290
     0
174
     0
 93
       13
 44
0.0
173
     0
291
     1
 45
0.0
  0
VISUALSTYLE
  5
31
102
{ACAD_REACTORS
330
2A
102
}
102
{ACAD_XDICTIONARY
360
217
102
}
330
2A
100
AcDbVisualStyle
  2
Hidden
 70
     6
 71
     1
 72
     2
 73
     2
 90
        0
 40
0.6
 41
30.0
 62
     5
 63
     7
421
 16777215
 74
     2
 91
        2
 64
     7
 65
   257
 75
     2
175
     1
 42
40.0
 92
        0
 66
   257
 43
1.0
 76
     1
 77
     6
 78
     2
 67
     7
 79
     3
170
     0
171
     0
290
     0
174
     0
 93
        1
 44
0.0
173
     0
291
     0
 45
0.0
  0
VISUALSTYLE
  5
3B
102
{ACAD_REACTORS
330
2A
102
}
102
{ACAD_XDICTIONARY
360
22B
102
}
330
2A
100
AcDbVisualStyle
  2
JitterOff
 70
    20
 71
     2
 72
     2
 73
     0
 90
        0
 40
0.6
 41
30.0
 62
     5
 63
     7
421
 16777215
 74
     1
 91
        4
 64
     7
 65
   257
 75
     1
175
     1
 42
1.0
 92
       10
 66
     7
 43
1.0
 76
     1
 77
     6
 78
     2
 67
     7
 79
     5
170
     0
171
     0
290
     0
174
     0
 93
        1
 44
0.0
173
     0
291
     1
 45
0.0
  0
VISUALSTYLE
  5
38
102
{ACAD_REACTORS
330
2A
102
}
102
{ACAD_XDICTIONARY
360
225
102
}
330
2A
100
AcDbVisualStyle
  2
Linepattern
 70
    14
 71
     2
 72
     2
 73
     0
 90
        0
 40
0.6
 41
30.0
 62
     5
 63
     7
421
 16777215
 74
     1
 91
        4
 64
     7
 65
   257
 75
     7
175
     7
 42
1.0
 92
        8
 66
     7
 43
1.0
 76
     1
 77
     6
 78
     2
 67
     7
 79
     5
170
     0
171
     0
290
     0
174
     0
 93
        1
 44
0.0
173
     0
291
     1
 45
0.0
  0
VISUALSTYLE
  5
3C
102
{ACAD_REACTORS
330
2A
102
}
102
{ACAD_XDICTIONARY
360
22D
102
}
330
2A
100
AcDbVisualStyle
  2
OverhangOff
 70
    21
 71
     2
 72
     2
 73
     0
 90
        0
 40
0.6
 41
30.0
 62
     5
 63
     7
421
 16777215
 74
     1
 91
        4
 64
     7
 65
   257
 75
     1
175
     1
 42
1.0
 92
        9
 66
     7
 43
1.0
 76
     1
 77
     6
 78
     2
 67
     7
 79
     5
170
     0
171
     0
290
     0
174
     0
 93
        1
 44
0.0
173
     0
291
     1
 45
0.0
  0
VISUALSTYLE
  5
33
102
{ACAD_REACTORS
330
2A
102
}
102
{ACAD_XDICTIONARY
360
21B
102
}
330
2A
100
AcDbVisualStyle
  2
Realistic
 70
     8
 71
     2
 72
     3
 73
     0
 90
        2
 40
0.6
 41
30.0
 62
     5
 63
     7
421
 16777215
 74
     0
 91
        0
 64
     7
 65
   257
 75
     1
175
     1
 42
1.0
 92
        8
 66
   257
 43
1.0
 76
     1
 77
     6
 78
     2
 67
     7
 79
     3
170
     0
171
     0
290
     0
174
     0
 93
       13
 44
0.0
173
     0
291
     0
 45
0.0
  0
VISUALSTYLE
  5
42
102
{ACAD_REACTORS
330
2A
102
}
102
{ACAD_XDICTIONARY
360
239
102
}
330
2A
100
AcDbVisualStyle
  2
Shaded
 70
    27
 71
     2
 72
     2
 73
     1
 90
        2
 40
0.6
 41
30.0
 62
     5
 63
     7
421
 16777215
 74
     0
 91
        4
 64
     7
 65
   257
 75
     1
175
     1
 42
1.0
 92
        8
 66
   257
 43
1.0
 76
     1
 77
     6
 78
     2
 67
     8
425
  7895160
 79
     3
170
     0
171
     0
290
     0
174
     0
 93
        5
 44
0.0
173
     0
291
     0
 45
0.0
  0
VISUALSTYLE
  5
41
102
{ACAD_REACTORS
330
2A
102
}
102
{ACAD_XDICTIONARY
360
237
102
}
330
2A
100
AcDbVisualStyle
  2
Shaded with edges
 70
    26
 71
     2
 72
     2
 73
     1
 90
        2
 40
0.6
 41
30.0
 62
     5
 63
     7
421
 16777215
 74
     1
 91
       10
 64
     7
 65
   257
 75
     2
175
     1
 42
1.0
 92
        8
 66
   257
 43
1.0
 76
     1
 77
     6
 78
     2
 67
     7
 79
     3
170
     0
171
     0
290
     0
174
     0
 93
        5
 44
0.0
173
     0
291
     0
 45
0.0
  0
VISUALSTYLE
  5
3E
102
{ACAD_REACTORS
330
2A
102
}
102
{ACAD_XDICTIONARY
360
231
102
}
330
2A
100
AcDbVisualStyle
  2
Shades of Gray
 70
    23
 71
     2
 72
     2
 73
     3
 90
        0
 40
0.6
 41
30.0
 62
     5
 63
     7
421
 16777215
 74
     2
 91
        2
 64
     7
 65
     7
 75
     1
175
     1
 42
40.0
 92
        8
 66
     7
 43
1.0
 76
     1
 77
     6
 78
     2
 67
     7
 79
     3
170
     0
171
     0
290
     0
174
     0
 93
        1
 44
0.0
173
     0
291
     0
 45
0.0
  0
VISUALSTYLE
  5
3F
102
{ACAD_REACTORS
330
2A
102
}
102
{ACAD_XDICTIONARY
360
233
102
}
330
2A
100
AcDbVisualStyle
  2
Sketchy
 70
    24
 71
     1
 72
     2
 73
     2
 90
        0
 40
0.6
 41
30.0
 62
     5
 63
     7
421
 16777215
 74
     2
 91
        2
 64
     7
 65
     7
 75
     1
175
     1
 42
40.0
 92
       11
 66
     7
 43
1.0
 76
     1
 77
     6
 78
     2
 67
     7
 79
     6
170
     0
171
     0
290
     0
174
     0
 93
        1
 44
0.0
173
     0
291
     0
 45
0.0
  0
VISUALSTYLE
  5
37
102
{ACAD_REACTORS
330
2A
102
}
102
{ACAD_XDICTIONARY
360
223
102
}
330
2A
100
AcDbVisualStyle
  2
Thicken
 70
    13
 71
     2
 72
     2
 73
     0
 90
        0
 40
0.6
 41
30.0
 62
     5
 63
     7
421
 16777215
 74
     1
 91
        4
 64
     7
 65
   257
 75
     1
175
     1
 42
1.0
 92
       12
 66
     7
 43
1.0
 76
     1
 77
     6
 78
     2
 67
     7
 79
     5
170
     0
171
     0
290
     0
174
     0
 93
        1
 44
0.0
173
     0
291
     1
 45
0.0
  0
VISUALSTYLE
  5
30
102
{ACAD_REACTORS
330
2A
102
}
102
{ACAD_XDICTIONARY
360
215
102
}
330
2A
100
AcDbVisualStyle
  2
Wireframe
 70
     5
 71
     0
 72
     2
 73
     0
 90
        0
 40
0.6
 41
30.0
 62
     5
 63
     7
421
 16777215
 74
     1
 91
        4
 64
     7
 65
   257
 75
     1
175
     1
 42
1.0
 92
        0
 66
   257
 43
1.0
 76
     1
 77
     6
 78
     2
 67
     7
 79
     3
170
     0
171
     0
290
     0
174
     0
 93
        1
 44
0.0
173
     0
291
     0
 45
0.0
  0
VISUALSTYLE
  5
40
102
{ACAD_REACTORS
330
2A
102
}
102
{ACAD_XDICTIONARY
360
235
102
}
330
2A
100
AcDbVisualStyle
  2
X-Ray
 70
    25
 71
     2
 72
     2
 73
     1
 90
        1
 40
0.5
 41
30.0
 62
     5
 63
     7
421
 16777215
 74
     1
 91
        0
 64
     7
 65
   257
 75
     1
175
     1
 42
1.0
 92
        8
 66
     7
 43
1.0
 76
     1
 77
     6
 78
     2
 67
     7
 79
     3
170
     0
171
     0
290
     0
174
     0
 93
       13
 44
0.0
173
     0
291
     0
 45
0.0
  0
DICTIONARYVAR
  5
209
102
{ACAD_REACTORS
330
208
102
}
330
208
100
DictionaryVariables
280
     0
  1
1:1
  0
DICTIONARYVAR
  5
245
102
{ACAD_REACTORS
330
208
102
}
330
208
100
DictionaryVariables
280
     0
  1
3.500000
  0
DICTIONARYVAR
  5
246
102
{ACAD_REACTORS
330
208
102
}
330
208
100
DictionaryVariables
280
     0
  1
acadiso.lin
  0
DICTIONARYVAR
  5
242
102
{ACAD_REACTORS
330
208
102
}
330
208
100
DictionaryVariables
280
     0
  1
Standard
  0
DICTIONARYVAR
  5
241
102
{ACAD_REACTORS
330
208
102
}
330
208
100
DictionaryVariables
280
     0
  1
Standard
  0
DICTIONARYVAR
  5
20A
102
{ACAD_REACTORS
330
208
102
}
330
208
100
DictionaryVariables
280
     0
  1
2
  0
DICTIONARY
  5
23E
330
6C
100
AcDbDictionary
280
     1
281
     1
  3
ACAD_XREC_ROUNDTRIP
360
23F
  0
DICTIONARY
  5
23B
330
6A
100
AcDbDictionary
280
     1
281
     1
  3
ACAD_ROUNDTRIP_2008_TABLESTYLE_CELLSTYLEMAP
360
23C
  0
DICTIONARY
  5
213
330
2F
100
AcDbDictionary
280
     1
281
     1
  3
ACAD_XREC_ROUNDTRIP
360
214
  0
DICTIONARY
  5
219
330
32
100
AcDbDictionary
280
     1
281
     1
  3
ACAD_XREC_ROUNDTRIP
360
21A
  0
DICTIONARY
  5
221
330
36
100
AcDbDictionary
280
     1
281
     1
  3
ACAD_XREC_ROUNDTRIP
360
222
  0
DICTIONARY
  5
229
330
3A
100
AcDbDictionary
280
     1
281
     1
  3
ACAD_XREC_ROUNDTRIP
360
22A
  0
DICTIONARY
  5
21D
330
34
100
AcDbDictionary
280
     1
281
     1
  3
ACAD_XREC_ROUNDTRIP
360
21E
  0
DICTIONARY
  5
21F
330
35
100
AcDbDictionary
280
     1
281
     1
  3
ACAD_XREC_ROUNDTRIP
360
220
  0
DICTIONARY
  5
22F
330
3D
100
AcDbDictionary
280
     1
281
     1
  3
ACAD_XREC_ROUNDTRIP
360
230
  0
DICTIONARY
  5
227
330
39
100
AcDbDictionary
280
     1
281
     1
  3
ACAD_XREC_ROUNDTRIP
360
228
  0
DICTIONARY
  5
20B
330
2B
100
AcDbDictionary
280
     1
281
     1
  3
ACAD_XREC_ROUNDTRIP
360
20C
  0
DICTIONARY
  5
20D
330
2C
100
AcDbDictionary
280
     1
281
     1
  3
ACAD_XREC_ROUNDTRIP
360
20E
  0
DICTIONARY
  5
20F
330
2D
100
AcDbDictionary
280
     1
281
     1
  3
ACAD_XREC_ROUNDTRIP
360
210
  0
DICTIONARY
  5
211
330
2E
100
AcDbDictionary
280
     1
281
     1
  3
ACAD_XREC_ROUNDTRIP
360
212
  0
DICTIONARY
  5
217
330
31
100
AcDbDictionary
280
     1
281
     1
  3
ACAD_XREC_ROUNDTRIP
360
218
  0
DICTIONARY
  5
22B
330
3B
100
AcDbDictionary
280
     1
281
     1
  3
ACAD_XREC_ROUNDTRIP
360
22C
  0
DICTIONARY
  5
225
330
38
100
AcDbDictionary
280
     1
281
     1
  3
ACAD_XREC_ROUNDTRIP
360
226
  0
DICTIONARY
  5
22D
330
3C
100
AcDbDictionary
280
     1
281
     1
  3
ACAD_XREC_ROUNDTRIP
360
22E
  0
DICTIONARY
  5
21B
330
33
100
AcDbDictionary
280
     1
281
     1
  3
ACAD_XREC_ROUNDTRIP
360
21C
  0
DICTIONARY
  5
239
330
42
100
AcDbDictionary
280
     1
281
     1
  3
ACAD_XREC_ROUNDTRIP
360
23A
  0
DICTIONARY
  5
237
330
41
100
AcDbDictionary
280
     1
281
     1
  3
ACAD_XREC_ROUNDTRIP
360
238
  0
DICTIONARY
  5
231
330
3E
100
AcDbDictionary
280
     1
281
     1
  3
ACAD_XREC_ROUNDTRIP
360
232
  0
DICTIONARY
  5
233
330
3F
100
AcDbDictionary
280
     1
281
     1
  3
ACAD_XREC_ROUNDTRIP
360
234
  0
DICTIONARY
  5
223
330
37
100
AcDbDictionary
280
     1
281
     1
  3
ACAD_XREC_ROUNDTRIP
360
224
  0
DICTIONARY
  5
215
330
30
100
AcDbDictionary
280
     1
281
     1
  3
ACAD_XREC_ROUNDTRIP
360
216
  0
DICTIONARY
  5
235
330
40
100
AcDbDictionary
280
     1
281
     1
  3
ACAD_XREC_ROUNDTRIP
360
236
  0
XRECORD
  5
23F
102
{ACAD_REACTORS
330
23E
102
}
330
23E
100
AcDbXrecord
280
     1
102
ACAD_ROUNDTRIP_2010_MLEADER_STYLE
  0
CELLSTYLEMAP
  5
23C
102
{ACAD_REACTORS
330
23B
102
}
330
23B
100
AcDbCellStyleMap
 90
        3
300
CELLSTYLE
  1
TABLEFORMAT_BEGIN
 90
        5
170
     1
 91
        0
 92
    32768
 62
   257
 93
        1
300
CONTENTFORMAT
  1
CONTENTFORMAT_BEGIN
 90
        0
 91
        0
 92
        4
 93
        0
300

 40
0.0
140
1.0
 94
        5
 62
     0
340
11
144
6.0
309
CONTENTFORMAT_END
171
     1
301
MARGIN
  1
CELLMARGIN_BEGIN
 40
1.5
 40
1.5
 40
1.5
 40
1.5
 40
1.5
 40
1.5
309
CELLMARGIN_END
 94
        6
 95
        1
302
GRIDFORMAT
  1
GRIDFORMAT_BEGIN
 90
        0
 91
        1
 62
     0
 92
       -2
340
14
 93
        0
 40
0.045
309
GRIDFORMAT_END
 95
        2
302
GRIDFORMAT
  1
GRIDFORMAT_BEGIN
 90
        0
 91
        1
 62
     0
 92
       -2
340
14
 93
        0
 40
0.045
309
GRIDFORMAT_END
 95
        4
302
GRIDFORMAT
  1
GRIDFORMAT_BEGIN
 90
        0
 91
        1
 62
     0
 92
       -2
340
14
 93
        0
 40
0.045
309
GRIDFORMAT_END
 95
        8
302
GRIDFORMAT
  1
GRIDFORMAT_BEGIN
 90
        0
 91
        1
 62
     0
 92
       -2
340
14
 93
        0
 40
0.045
309
GRIDFORMAT_END
 95
       16
302
GRIDFORMAT
  1
GRIDFORMAT_BEGIN
 90
        0
 91
        1
 62
     0
 92
       -2
340
14
 93
        0
 40
0.045
309
GRIDFORMAT_END
 95
       32
302
GRIDFORMAT
  1
GRIDFORMAT_BEGIN
 90
        0
 91
        1
 62
     0
 92
       -2
340
14
 93
        0
 40
0.045
309
GRIDFORMAT_END
309
TABLEFORMAT_END
  1
CELLSTYLE_BEGIN
 90
        1
 91
        1
300
_TITLE
309
CELLSTYLE_END
300
CELLSTYLE
  1
TABLEFORMAT_BEGIN
 90
        5
170
     1
 91
        0
 92
        0
 62
   257
 93
        1
300
CONTENTFORMAT
  1
CONTENTFORMAT_BEGIN
 90
        0
 91
        0
 92
        4
 93
        0
300

 40
0.0
140
1.0
 94
        5
 62
     0
340
11
144
4.5
309
CONTENTFORMAT_END
171
     1
301
MARGIN
  1
CELLMARGIN_BEGIN
 40
1.5
 40
1.5
 40
1.5
 40
1.5
 40
1.5
 40
1.5
309
CELLMARGIN_END
 94
        6
 95
        1
302
GRIDFORMAT
  1
GRIDFORMAT_BEGIN
 90
        0
 91
        1
 62
     0
 92
       -2
340
14
 93
        0
 40
0.045
309
GRIDFORMAT_END
 95
        2
302
GRIDFORMAT
  1
GRIDFORMAT_BEGIN
 90
        0
 91
        1
 62
     0
 92
       -2
340
14
 93
        0
 40
0.045
309
GRIDFORMAT_END
 95
        4
302
GRIDFORMAT
  1
GRIDFORMAT_BEGIN
 90
        0
 91
        1
 62
     0
 92
       -2
340
14
 93
        0
 40
0.045
309
GRIDFORMAT_END
 95
        8
302
GRIDFORMAT
  1
GRIDFORMAT_BEGIN
 90
        0
 91
        1
 62
     0
 92
       -2
340
14
 93
        0
 40
0.045
309
GRIDFORMAT_END
 95
       16
302
GRIDFORMAT
  1
GRIDFORMAT_BEGIN
 90
        0
 91
        1
 62
     0
 92
       -2
340
14
 93
        0
 40
0.045
309
GRIDFORMAT_END
 95
       32
302
GRIDFORMAT
  1
GRIDFORMAT_BEGIN
 90
        0
 91
        1
 62
     0
 92
       -2
340
14
 93
        0
 40
0.045
309
GRIDFORMAT_END
309
TABLEFORMAT_END
  1
CELLSTYLE_BEGIN
 90
        2
 91
        1
300
_HEADER
309
CELLSTYLE_END
300
CELLSTYLE
  1
TABLEFORMAT_BEGIN
 90
        5
170
     1
 91
        0
 92
        0
 62
   257
 93
        1
300
CONTENTFORMAT
  1
CONTENTFORMAT_BEGIN
 90
        0
 91
        0
 92
        4
 93
        0
300

 40
0.0
140
1.0
 94
        2
 62
     0
340
11
144
4.5
309
CONTENTFORMAT_END
171
     1
301
MARGIN
  1
CELLMARGIN_BEGIN
 40
1.5
 40
1.5
 40
1.5
 40
1.5
 40
1.5
 40
1.5
309
CELLMARGIN_END
 94
        6
 95
        1
302
GRIDFORMAT
  1
GRIDFORMAT_BEGIN
 90
        0
 91
        1
 62
     0
 92
       -2
340
14
 93
        0
 40
0.045
309
GRIDFORMAT_END
 95
        2
302
GRIDFORMAT
  1
GRIDFORMAT_BEGIN
 90
        0
 91
        1
 62
     0
 92
       -2
340
14
 93
        0
 40
0.045
309
GRIDFORMAT_END
 95
        4
302
GRIDFORMAT
  1
GRIDFORMAT_BEGIN
 90
        0
 91
        1
 62
     0
 92
       -2
340
14
 93
        0
 40
0.045
309
GRIDFORMAT_END
 95
        8
302
GRIDFORMAT
  1
GRIDFORMAT_BEGIN
 90
        0
 91
        1
 62
     0
 92
       -2
340
14
 93
        0
 40
0.045
309
GRIDFORMAT_END
 95
       16
302
GRIDFORMAT
  1
GRIDFORMAT_BEGIN
 90
        0
 91
        1
 62
     0
 92
       -2
340
14
 93
        0
 40
0.045
309
GRIDFORMAT_END
 95
       32
302
GRIDFORMAT
  1
GRIDFORMAT_BEGIN
 90
        0
 91
        1
 62
     0
 92
       -2
340
14
 93
        0
 40
0.045
309
GRIDFORMAT_END
309
TABLEFORMAT_END
  1
CELLSTYLE_BEGIN
 90
        3
 91
        2
300
_DATA
309
CELLSTYLE_END
  0
XRECORD
  5
214
102
{ACAD_REACTORS
330
213
102
}
330
213
100
AcDbXrecord
280
     1
102
RTVSPropertyOp0
 70
     1
102
RTVSPropertyOp1
 70
     1
102
RTVSPropertyOp2
 70
     1
102
RTVSPropertyOp3
 70
     1
102
RTVSPropertyOp4
 70
     1
102
RTVSPropertyOp5
 70
     1
102
RTVSPropertyOp6
 70
     1
102
RTVSPropertyOp7
 70
     1
102
RTVSPropertyOp8
 70
     1
102
RTVSPropertyOp9
 70
     1
102
RTVSPropertyOp10
 70
     1
102
RTVSPropertyOp11
 70
     1
102
RTVSPropertyOp12
 70
     1
102
RTVSPropertyOp13
 70
     1
102
RTVSPropertyOp14
 70
     1
102
RTVSPropertyOp15
 70
     1
102
RTVSPropertyOp16
 70
     1
102
RTVSPropertyOp17
 70
     1
102
RTVSPropertyOp18
 70
     1
102
RTVSPropertyOp19
 70
     1
102
RTVSPropertyOp20
 70
     1
102
RTVSPropertyOp21
 70
     1
102
RTVSPropertyOp22
 70
     1
102
RTVSPropertyOp23
 70
     1
102
RTVSPropertyOp24
 70
     1
102
RTVSPropertyOp25
 70
     1
102
RTVSPropertyOp26
 70
     1
102
RTVSPropertyOp27
 70
     1
102
RTVSPropertyOp28
 70
     1
102
RTVSPropertyOp29
 70
     1
102
RTVSPropertyOp30
 70
     1
102
RTVSPropertyOp31
 70
     1
102
RTVSPropertyOp32
 70
     1
102
RTVSPropertyOp33
 70
     1
102
RTVSPropertyOp34
 70
     1
102
RTVSPropertyOp35
 70
     1
102
RTVSPropertyOp36
 70
     1
102
RTVSPropertyOp37
 70
     1
102
RTVSPropertyOp38
 70
     1
102
RTVSPropertyOp39
 70
     1
102
RTVSPropertyOp40
 70
     1
102
RTVSPropertyOp41
 70
     1
102
RTVSPropertyOp42
 70
     1
102
RTVSPropertyOp43
 70
     1
102
RTVSPropertyOp44
 70
     1
102
RTVSPropertyOp45
 70
     1
102
RTVSPropertyOp46
 70
     1
102
RTVSPropertyOp47
 70
     1
102
RTVSPropertyOp48
 70
     1
102
RTVSPropertyOp49
 70
     1
102
RTVSPropertyOp50
 70
     1
102
RTVSPropertyOp51
 70
     0
102
RTVSPropertyOp52
 70
     0
102
RTVSPropertyOp53
 70
     1
102
RTVSPropertyOp54
 70
     1
102
RTVSPropertyOp55
 70
     1
102
RTVSPropertyOp56
 70
     1
102
RTVSPropertyOp57
 70
     1
102
RTVSPost2010Prop28
280
     1
102
RTVSPost2010PropOp28
 70
     1
102
RTVSPost2010Prop29
280
     1
102
RTVSPost2010PropOp29
 70
     1
102
RTVSPost2010Prop30
280
     0
102
RTVSPost2010PropOp30
 70
     1
102
RTVSPost2010Prop31
280
     0
102
RTVSPost2010PropOp31
 70
     1
102
RTVSPost2010Prop32
280
     0
102
RTVSPost2010PropOp32
 70
     1
102
RTVSPost2010Prop33
280
     0
102
RTVSPost2010PropOp33
 70
     1
102
RTVSPost2010Prop34
280
     0
102
RTVSPost2010PropOp34
 70
     1
102
RTVSPost2010Prop35
280
     0
102
RTVSPost2010PropOp35
 70
     1
102
RTVSPost2010Prop36
280
     0
102
RTVSPost2010PropOp36
 70
     1
102
RTVSPost2010Prop37
 90
       50
102
RTVSPost2010PropOp37
 70
     1
102
RTVSPost2010Prop38
140
0.0
102
RTVSPost2010PropOp38
 70
     1
102
RTVSPost2010Prop39
140
1.0
102
RTVSPost2010PropOp39
 70
     1
102
RTVSPost2010Prop40
 90
        0
102
RTVSPost2010PropOp40
 70
     1
102
RTVSPost2010Prop41ColorIndex
 90
       18
102
RTVSPost2010Prop41ColorRGB
 90
        0
102
RTVSPost2010PropOp41
 70
     1
102
RTVSPost2010Prop42
 90
       50
102
RTVSPost2010PropOp42
 70
     1
102
RTVSPost2010Prop43
 90
        3
102
RTVSPost2010PropOp43
 70
     1
102
RTVSPost2010Prop44ColorIndex
 90
        5
102
RTVSPost2010Prop44ColorRGB
 90
      255
102
RTVSPost2010PropOp44
 70
     1
102
RTVSPost2010Prop45
280
     0
102
RTVSPost2010PropOp45
 70
     1
102
RTVSPost2010Prop46
 90
       50
102
RTVSPost2010PropOp46
 70
     1
102
RTVSPost2010Prop47
 90
       50
102
RTVSPost2010PropOp47
 70
     1
102
RTVSPost2010Prop48
 90
       50
102
RTVSPost2010PropOp48
 70
     1
102
RTVSPost2010Prop49
280
     0
102
RTVSPost2010PropOp49
 70
     1
102
RTVSPost2010Prop50
 90
       50
102
RTVSPost2010PropOp50
 70
     1
102
RTVSPost2010Prop51ColorIndex
 90
      256
102
RTVSPost2010Prop51ColorRGB
 90
-16777216
102
RTVSPost2010PropOp51
 70
     0
102
RTVSPost2010Prop52
140
1.0
102
RTVSPost2010PropOp52
 70
     0
102
RTVSPost2010Prop53
 90
        2
102
RTVSPost2010PropOp53
 70
     1
102
RTVSPost2010Prop54
  1
strokes_ogs.tif
102
RTVSPost2010PropOp54
 70
     1
102
RTVSPost2010Prop55
280
     0
102
RTVSPost2010PropOp55
 70
     1
102
RTVSPost2010Prop56
140
1.0
102
RTVSPost2010PropOp56
 70
     1
102
RTVSPost2010Prop57
140
1.0
102
RTVSPost2010PropOp57
 70
     1
  0
XRECORD
  5
21A
102
{ACAD_REACTORS
330
219
102
}
330
219
100
AcDbXrecord
280
     1
102
RTVSPropertyOp0
 70
     1
102
RTVSPropertyOp1
 70
     1
102
RTVSPropertyOp2
 70
     1
102
RTVSPropertyOp3
 70
     1
102
RTVSPropertyOp4
 70
     1
102
RTVSPropertyOp5
 70
     1
102
RTVSPropertyOp6
 70
     1
102
RTVSPropertyOp7
 70
     1
102
RTVSPropertyOp8
 70
     1
102
RTVSPropertyOp9
 70
     1
102
RTVSPropertyOp10
 70
     1
102
RTVSPropertyOp11
 70
     1
102
RTVSPropertyOp12
 70
     1
102
RTVSPropertyOp13
 70
     1
102
RTVSPropertyOp14
 70
     1
102
RTVSPropertyOp15
 70
     1
102
RTVSPropertyOp16
 70
     1
102
RTVSPropertyOp17
 70
     1
102
RTVSPropertyOp18
 70
     1
102
RTVSPropertyOp19
 70
     1
102
RTVSPropertyOp20
 70
     1
102
RTVSPropertyOp21
 70
     1
102
RTVSPropertyOp22
 70
     1
102
RTVSPropertyOp23
 70
     1
102
RTVSPropertyOp24
 70
     1
102
RTVSPropertyOp25
 70
     1
102
RTVSPropertyOp26
 70
     1
102
RTVSPropertyOp27
 70
     1
102
RTVSPropertyOp28
 70
     1
102
RTVSPropertyOp29
 70
     1
102
RTVSPropertyOp30
 70
     1
102
RTVSPropertyOp31
 70
     1
102
RTVSPropertyOp32
 70
     1
102
RTVSPropertyOp33
 70
     1
102
RTVSPropertyOp34
 70
     1
102
RTVSPropertyOp35
 70
     1
102
RTVSPropertyOp36
 70
     1
102
RTVSPropertyOp37
 70
     1
102
RTVSPropertyOp38
 70
     1
102
RTVSPropertyOp39
 70
     1
102
RTVSPropertyOp40
 70
     1
102
RTVSPropertyOp41
 70
     1
102
RTVSPropertyOp42
 70
     1
102
RTVSPropertyOp43
 70
     1
102
RTVSPropertyOp44
 70
     1
102
RTVSPropertyOp45
 70
     1
102
RTVSPropertyOp46
 70
     1
102
RTVSPropertyOp47
 70
     1
102
RTVSPropertyOp48
 70
     1
102
RTVSPropertyOp49
 70
     1
102
RTVSPropertyOp50
 70
     1
102
RTVSPropertyOp51
 70
     0
102
RTVSPropertyOp52
 70
     0
102
RTVSPropertyOp53
 70
     1
102
RTVSPropertyOp54
 70
     1
102
RTVSPropertyOp55
 70
     1
102
RTVSPropertyOp56
 70
     1
102
RTVSPropertyOp57
 70
     1
102
RTVSPost2010Prop28
280
     0
102
RTVSPost2010PropOp28
 70
     1
102
RTVSPost2010Prop29
280
     1
102
RTVSPost2010PropOp29
 70
     1
102
RTVSPost2010Prop30
280
     1
102
RTVSPost2010PropOp30
 70
     1
102
RTVSPost2010Prop31
280
     0
102
RTVSPost2010PropOp31
 70
     1
102
RTVSPost2010Prop32
280
     0
102
RTVSPost2010PropOp32
 70
     1
102
RTVSPost2010Prop33
280
     0
102
RTVSPost2010PropOp33
 70
     1
102
RTVSPost2010Prop34
280
     0
102
RTVSPost2010PropOp34
 70
     1
102
RTVSPost2010Prop35
280
     0
102
RTVSPost2010PropOp35
 70
     1
102
RTVSPost2010Prop36
280
     0
102
RTVSPost2010PropOp36
 70
     1
102
RTVSPost2010Prop37
 90
       50
102
RTVSPost2010PropOp37
 70
     1
102
RTVSPost2010Prop38
140
0.0
102
RTVSPost2010PropOp38
 70
     1
102
RTVSPost2010Prop39
140
1.0
102
RTVSPost2010PropOp39
 70
     1
102
RTVSPost2010Prop40
 90
        0
102
RTVSPost2010PropOp40
 70
     1
102
RTVSPost2010Prop41ColorIndex
 90
       18
102
RTVSPost2010Prop41ColorRGB
 90
        0
102
RTVSPost2010PropOp41
 70
     1
102
RTVSPost2010Prop42
 90
       50
102
RTVSPost2010PropOp42
 70
     1
102
RTVSPost2010Prop43
 90
        3
102
RTVSPost2010PropOp43
 70
     1
102
RTVSPost2010Prop44ColorIndex
 90
        5
102
RTVSPost2010Prop44ColorRGB
 90
      255
102
RTVSPost2010PropOp44
 70
     1
102
RTVSPost2010Prop45
280
     0
102
RTVSPost2010PropOp45
 70
     1
102
RTVSPost2010Prop46
 90
       50
102
RTVSPost2010PropOp46
 70
     1
102
RTVSPost2010Prop47
 90
       50
102
RTVSPost2010PropOp47
 70
     1
102
RTVSPost2010Prop48
 90
       50
102
RTVSPost2010PropOp48
 70
     1
102
RTVSPost2010Prop49
280
     0
102
RTVSPost2010PropOp49
 70
     1
102
RTVSPost2010Prop50
 90
       50
102
RTVSPost2010PropOp50
 70
     1
102
RTVSPost2010Prop51ColorIndex
 90
      256
102
RTVSPost2010Prop51ColorRGB
 90
-16777216
102
RTVSPost2010PropOp51
 70
     0
102
RTVSPost2010Prop52
140
1.0
102
RTVSPost2010PropOp52
 70
     0
102
RTVSPost2010Prop53
 90
        2
102
RTVSPost2010PropOp53
 70
     1
102
RTVSPost2010Prop54
  1
strokes_ogs.tif
102
RTVSPost2010PropOp54
 70
     1
102
RTVSPost2010Prop55
280
     0
102
RTVSPost2010PropOp55
 70
     1
102
RTVSPost2010Prop56
140
1.0
102
RTVSPost2010PropOp56
 70
     1
102
RTVSPost2010Prop57
140
1.0
102
RTVSPost2010PropOp57
 70
     1
  0
XRECORD
  5
222
102
{ACAD_REACTORS
330
221
102
}
330
221
100
AcDbXrecord
280
     1
102
RTVSPropertyOp0
 70
     1
102
RTVSPropertyOp1
 70
     1
102
RTVSPropertyOp2
 70
     1
102
RTVSPropertyOp3
 70
     1
102
RTVSPropertyOp4
 70
     1
102
RTVSPropertyOp5
 70
     1
102
RTVSPropertyOp6
 70
     1
102
RTVSPropertyOp7
 70
     1
102
RTVSPropertyOp8
 70
     1
102
RTVSPropertyOp9
 70
     1
102
RTVSPropertyOp10
 70
     1
102
RTVSPropertyOp11
 70
     1
102
RTVSPropertyOp12
 70
     1
102
RTVSPropertyOp13
 70
     1
102
RTVSPropertyOp14
 70
     1
102
RTVSPropertyOp15
 70
     1
102
RTVSPropertyOp16
 70
     1
102
RTVSPropertyOp17
 70
     1
102
RTVSPropertyOp18
 70
     1
102
RTVSPropertyOp19
 70
     1
102
RTVSPropertyOp20
 70
     1
102
RTVSPropertyOp21
 70
     1
102
RTVSPropertyOp22
 70
     1
102
RTVSPropertyOp23
 70
     1
102
RTVSPropertyOp24
 70
     1
102
RTVSPropertyOp25
 70
     1
102
RTVSPropertyOp26
 70
     1
102
RTVSPropertyOp27
 70
     1
102
RTVSPropertyOp28
 70
     1
102
RTVSPropertyOp29
 70
     1
102
RTVSPropertyOp30
 70
     1
102
RTVSPropertyOp31
 70
     1
102
RTVSPropertyOp32
 70
     1
102
RTVSPropertyOp33
 70
     1
102
RTVSPropertyOp34
 70
     1
102
RTVSPropertyOp35
 70
     1
102
RTVSPropertyOp36
 70
     1
102
RTVSPropertyOp37
 70
     1
102
RTVSPropertyOp38
 70
     1
102
RTVSPropertyOp39
 70
     1
102
RTVSPropertyOp40
 70
     1
102
RTVSPropertyOp41
 70
     1
102
RTVSPropertyOp42
 70
     1
102
RTVSPropertyOp43
 70
     1
102
RTVSPropertyOp44
 70
     1
102
RTVSPropertyOp45
 70
     1
102
RTVSPropertyOp46
 70
     1
102
RTVSPropertyOp47
 70
     1
102
RTVSPropertyOp48
 70
     1
102
RTVSPropertyOp49
 70
     1
102
RTVSPropertyOp50
 70
     1
102
RTVSPropertyOp51
 70
     0
102
RTVSPropertyOp52
 70
     0
102
RTVSPropertyOp53
 70
     1
102
RTVSPropertyOp54
 70
     1
102
RTVSPropertyOp55
 70
     1
102
RTVSPropertyOp56
 70
     1
102
RTVSPropertyOp57
 70
     1
102
RTVSPost2010Prop28
280
     0
102
RTVSPost2010PropOp28
 70
     1
102
RTVSPost2010Prop29
280
     1
102
RTVSPost2010PropOp29
 70
     1
102
RTVSPost2010Prop30
280
     1
102
RTVSPost2010PropOp30
 70
     1
102
RTVSPost2010Prop31
280
     0
102
RTVSPost2010PropOp31
 70
     1
102
RTVSPost2010Prop32
280
     0
102
RTVSPost2010PropOp32
 70
     1
102
RTVSPost2010Prop33
280
     0
102
RTVSPost2010PropOp33
 70
     1
102
RTVSPost2010Prop34
280
     0
102
RTVSPost2010PropOp34
 70
     1
102
RTVSPost2010Prop35
280
     0
102
RTVSPost2010PropOp35
 70
     1
102
RTVSPost2010Prop36
280
     0
102
RTVSPost2010PropOp36
 70
     1
102
RTVSPost2010Prop37
 90
       50
102
RTVSPost2010PropOp37
 70
     1
102
RTVSPost2010Prop38
140
0.0
102
RTVSPost2010PropOp38
 70
     1
102
RTVSPost2010Prop39
140
1.0
102
RTVSPost2010PropOp39
 70
     1
102
RTVSPost2010Prop40
 90
        0
102
RTVSPost2010PropOp40
 70
     1
102
RTVSPost2010Prop41ColorIndex
 90
       18
102
RTVSPost2010Prop41ColorRGB
 90
        0
102
RTVSPost2010PropOp41
 70
     1
102
RTVSPost2010Prop42
 90
       50
102
RTVSPost2010PropOp42
 70
     1
102
RTVSPost2010Prop43
 90
        3
102
RTVSPost2010PropOp43
 70
     1
102
RTVSPost2010Prop44ColorIndex
 90
        5
102
RTVSPost2010Prop44ColorRGB
 90
      255
102
RTVSPost2010PropOp44
 70
     1
102
RTVSPost2010Prop45
280
     0
102
RTVSPost2010PropOp45
 70
     1
102
RTVSPost2010Prop46
 90
       50
102
RTVSPost2010PropOp46
 70
     1
102
RTVSPost2010Prop47
 90
       50
102
RTVSPost2010PropOp47
 70
     1
102
RTVSPost2010Prop48
 90
       50
102
RTVSPost2010PropOp48
 70
     1
102
RTVSPost2010Prop49
280
     0
102
RTVSPost2010PropOp49
 70
     1
102
RTVSPost2010Prop50
 90
       50
102
RTVSPost2010PropOp50
 70
     1
102
RTVSPost2010Prop51ColorIndex
 90
      256
102
RTVSPost2010Prop51ColorRGB
 90
-16777216
102
RTVSPost2010PropOp51
 70
     0
102
RTVSPost2010Prop52
140
1.0
102
RTVSPost2010PropOp52
 70
     0
102
RTVSPost2010Prop53
 90
        2
102
RTVSPost2010PropOp53
 70
     1
102
RTVSPost2010Prop54
  1
strokes_ogs.tif
102
RTVSPost2010PropOp54
 70
     1
102
RTVSPost2010Prop55
280
     0
102
RTVSPost2010PropOp55
 70
     1
102
RTVSPost2010Prop56
140
1.0
102
RTVSPost2010PropOp56
 70
     1
102
RTVSPost2010Prop57
140
1.0
102
RTVSPost2010PropOp57
 70
     1
  0
XRECORD
  5
22A
102
{ACAD_REACTORS
330
229
102
}
330
229
100
AcDbXrecord
280
     1
102
RTVSPropertyOp0
 70
     1
102
RTVSPropertyOp1
 70
     1
102
RTVSPropertyOp2
 70
     1
102
RTVSPropertyOp3
 70
     1
102
RTVSPropertyOp4
 70
     1
102
RTVSPropertyOp5
 70
     1
102
RTVSPropertyOp6
 70
     1
102
RTVSPropertyOp7
 70
     1
102
RTVSPropertyOp8
 70
     1
102
RTVSPropertyOp9
 70
     1
102
RTVSPropertyOp10
 70
     1
102
RTVSPropertyOp11
 70
     1
102
RTVSPropertyOp12
 70
     1
102
RTVSPropertyOp13
 70
     1
102
RTVSPropertyOp14
 70
     1
102
RTVSPropertyOp15
 70
     1
102
RTVSPropertyOp16
 70
     1
102
RTVSPropertyOp17
 70
     1
102
RTVSPropertyOp18
 70
     1
102
RTVSPropertyOp19
 70
     1
102
RTVSPropertyOp20
 70
     1
102
RTVSPropertyOp21
 70
     1
102
RTVSPropertyOp22
 70
     1
102
RTVSPropertyOp23
 70
     1
102
RTVSPropertyOp24
 70
     1
102
RTVSPropertyOp25
 70
     1
102
RTVSPropertyOp26
 70
     1
102
RTVSPropertyOp27
 70
     1
102
RTVSPropertyOp28
 70
     1
102
RTVSPropertyOp29
 70
     1
102
RTVSPropertyOp30
 70
     1
102
RTVSPropertyOp31
 70
     1
102
RTVSPropertyOp32
 70
     1
102
RTVSPropertyOp33
 70
     1
102
RTVSPropertyOp34
 70
     1
102
RTVSPropertyOp35
 70
     1
102
RTVSPropertyOp36
 70
     1
102
RTVSPropertyOp37
 70
     1
102
RTVSPropertyOp38
 70
     1
102
RTVSPropertyOp39
 70
     1
102
RTVSPropertyOp40
 70
     1
102
RTVSPropertyOp41
 70
     1
102
RTVSPropertyOp42
 70
     1
102
RTVSPropertyOp43
 70
     1
102
RTVSPropertyOp44
 70
     1
102
RTVSPropertyOp45
 70
     1
102
RTVSPropertyOp46
 70
     1
102
RTVSPropertyOp47
 70
     1
102
RTVSPropertyOp48
 70
     1
102
RTVSPropertyOp49
 70
     1
102
RTVSPropertyOp50
 70
     1
102
RTVSPropertyOp51
 70
     0
102
RTVSPropertyOp52
 70
     0
102
RTVSPropertyOp53
 70
     1
102
RTVSPropertyOp54
 70
     1
102
RTVSPropertyOp55
 70
     1
102
RTVSPropertyOp56
 70
     1
102
RTVSPropertyOp57
 70
     1
102
RTVSPost2010Prop28
280
     0
102
RTVSPost2010PropOp28
 70
     1
102
RTVSPost2010Prop29
280
     1
102
RTVSPost2010PropOp29
 70
     1
102
RTVSPost2010Prop30
280
     1
102
RTVSPost2010PropOp30
 70
     1
102
RTVSPost2010Prop31
280
     0
102
RTVSPost2010PropOp31
 70
     1
102
RTVSPost2010Prop32
280
     0
102
RTVSPost2010PropOp32
 70
     1
102
RTVSPost2010Prop33
280
     0
102
RTVSPost2010PropOp33
 70
     1
102
RTVSPost2010Prop34
280
     0
102
RTVSPost2010PropOp34
 70
     1
102
RTVSPost2010Prop35
280
     0
102
RTVSPost2010PropOp35
 70
     1
102
RTVSPost2010Prop36
280
     0
102
RTVSPost2010PropOp36
 70
     1
102
RTVSPost2010Prop37
 90
       50
102
RTVSPost2010PropOp37
 70
     1
102
RTVSPost2010Prop38
140
0.0
102
RTVSPost2010PropOp38
 70
     1
102
RTVSPost2010Prop39
140
1.0
102
RTVSPost2010PropOp39
 70
     1
102
RTVSPost2010Prop40
 90
        0
102
RTVSPost2010PropOp40
 70
     1
102
RTVSPost2010Prop41ColorIndex
 90
       18
102
RTVSPost2010Prop41ColorRGB
 90
        0
102
RTVSPost2010PropOp41
 70
     1
102
RTVSPost2010Prop42
 90
       50
102
RTVSPost2010PropOp42
 70
     1
102
RTVSPost2010Prop43
 90
        3
102
RTVSPost2010PropOp43
 70
     1
102
RTVSPost2010Prop44ColorIndex
 90
        5
102
RTVSPost2010Prop44ColorRGB
 90
      255
102
RTVSPost2010PropOp44
 70
     1
102
RTVSPost2010Prop45
280
     0
102
RTVSPost2010PropOp45
 70
     1
102
RTVSPost2010Prop46
 90
       50
102
RTVSPost2010PropOp46
 70
     1
102
RTVSPost2010Prop47
 90
       50
102
RTVSPost2010PropOp47
 70
     1
102
RTVSPost2010Prop48
 90
       50
102
RTVSPost2010PropOp48
 70
     1
102
RTVSPost2010Prop49
280
     0
102
RTVSPost2010PropOp49
 70
     1
102
RTVSPost2010Prop50
 90
       50
102
RTVSPost2010PropOp50
 70
     1
102
RTVSPost2010Prop51ColorIndex
 90
      256
102
RTVSPost2010Prop51ColorRGB
 90
-16777216
102
RTVSPost2010PropOp51
 70
     0
102
RTVSPost2010Prop52
140
1.0
102
RTVSPost2010PropOp52
 70
     0
102
RTVSPost2010Prop53
 90
        2
102
RTVSPost2010PropOp53
 70
     1
102
RTVSPost2010Prop54
  1
strokes_ogs.tif
102
RTVSPost2010PropOp54
 70
     1
102
RTVSPost2010Prop55
280
     0
102
RTVSPost2010PropOp55
 70
     1
102
RTVSPost2010Prop56
140
1.0
102
RTVSPost2010PropOp56
 70
     1
102
RTVSPost2010Prop57
140
1.0
102
RTVSPost2010PropOp57
 70
     1
  0
XRECORD
  5
21E
102
{ACAD_REACTORS
330
21D
102
}
330
21D
100
AcDbXrecord
280
     1
102
RTVSPropertyOp0
 70
     1
102
RTVSPropertyOp1
 70
     1
102
RTVSPropertyOp2
 70
     1
102
RTVSPropertyOp3
 70
     1
102
RTVSPropertyOp4
 70
     1
102
RTVSPropertyOp5
 70
     1
102
RTVSPropertyOp6
 70
     1
102
RTVSPropertyOp7
 70
     1
102
RTVSPropertyOp8
 70
     1
102
RTVSPropertyOp9
 70
     1
102
RTVSPropertyOp10
 70
     1
102
RTVSPropertyOp11
 70
     1
102
RTVSPropertyOp12
 70
     1
102
RTVSPropertyOp13
 70
     1
102
RTVSPropertyOp14
 70
     1
102
RTVSPropertyOp15
 70
     1
102
RTVSPropertyOp16
 70
     1
102
RTVSPropertyOp17
 70
     1
102
RTVSPropertyOp18
 70
     1
102
RTVSPropertyOp19
 70
     1
102
RTVSPropertyOp20
 70
     1
102
RTVSPropertyOp21
 70
     1
102
RTVSPropertyOp22
 70
     1
102
RTVSPropertyOp23
 70
     1
102
RTVSPropertyOp24
 70
     1
102
RTVSPropertyOp25
 70
     1
102
RTVSPropertyOp26
 70
     1
102
RTVSPropertyOp27
 70
     1
102
RTVSPropertyOp28
 70
     1
102
RTVSPropertyOp29
 70
     1
102
RTVSPropertyOp30
 70
     1
102
RTVSPropertyOp31
 70
     1
102
RTVSPropertyOp32
 70
     1
102
RTVSPropertyOp33
 70
     1
102
RTVSPropertyOp34
 70
     1
102
RTVSPropertyOp35
 70
     1
102
RTVSPropertyOp36
 70
     1
102
RTVSPropertyOp37
 70
     1
102
RTVSPropertyOp38
 70
     1
102
RTVSPropertyOp39
 70
     1
102
RTVSPropertyOp40
 70
     1
102
RTVSPropertyOp41
 70
     1
102
RTVSPropertyOp42
 70
     1
102
RTVSPropertyOp43
 70
     1
102
RTVSPropertyOp44
 70
     1
102
RTVSPropertyOp45
 70
     1
102
RTVSPropertyOp46
 70
     1
102
RTVSPropertyOp47
 70
     1
102
RTVSPropertyOp48
 70
     1
102
RTVSPropertyOp49
 70
     1
102
RTVSPropertyOp50
 70
     1
102
RTVSPropertyOp51
 70
     0
102
RTVSPropertyOp52
 70
     0
102
RTVSPropertyOp53
 70
     1
102
RTVSPropertyOp54
 70
     1
102
RTVSPropertyOp55
 70
     1
102
RTVSPropertyOp56
 70
     1
102
RTVSPropertyOp57
 70
     1
102
RTVSPost2010Prop28
280
     0
102
RTVSPost2010PropOp28
 70
     1
102
RTVSPost2010Prop29
280
     1
102
RTVSPost2010PropOp29
 70
     1
102
RTVSPost2010Prop30
280
     1
102
RTVSPost2010PropOp30
 70
     1
102
RTVSPost2010Prop31
280
     0
102
RTVSPost2010PropOp31
 70
     1
102
RTVSPost2010Prop32
280
     0
102
RTVSPost2010PropOp32
 70
     1
102
RTVSPost2010Prop33
280
     0
102
RTVSPost2010PropOp33
 70
     1
102
RTVSPost2010Prop34
280
     0
102
RTVSPost2010PropOp34
 70
     1
102
RTVSPost2010Prop35
280
     0
102
RTVSPost2010PropOp35
 70
     1
102
RTVSPost2010Prop36
280
     0
102
RTVSPost2010PropOp36
 70
     1
102
RTVSPost2010Prop37
 90
       50
102
RTVSPost2010PropOp37
 70
     1
102
RTVSPost2010Prop38
140
0.0
102
RTVSPost2010PropOp38
 70
     1
102
RTVSPost2010Prop39
140
1.0
102
RTVSPost2010PropOp39
 70
     1
102
RTVSPost2010Prop40
 90
        0
102
RTVSPost2010PropOp40
 70
     1
102
RTVSPost2010Prop41ColorIndex
 90
       18
102
RTVSPost2010Prop41ColorRGB
 90
        0
102
RTVSPost2010PropOp41
 70
     1
102
RTVSPost2010Prop42
 90
       50
102
RTVSPost2010PropOp42
 70
     1
102
RTVSPost2010Prop43
 90
        3
102
RTVSPost2010PropOp43
 70
     1
102
RTVSPost2010Prop44ColorIndex
 90
        5
102
RTVSPost2010Prop44ColorRGB
 90
      255
102
RTVSPost2010PropOp44
 70
     1
102
RTVSPost2010Prop45
280
     0
102
RTVSPost2010PropOp45
 70
     1
102
RTVSPost2010Prop46
 90
       50
102
RTVSPost2010PropOp46
 70
     1
102
RTVSPost2010Prop47
 90
       50
102
RTVSPost2010PropOp47
 70
     1
102
RTVSPost2010Prop48
 90
       50
102
RTVSPost2010PropOp48
 70
     1
102
RTVSPost2010Prop49
280
     0
102
RTVSPost2010PropOp49
 70
     1
102
RTVSPost2010Prop50
 90
       50
102
RTVSPost2010PropOp50
 70
     1
102
RTVSPost2010Prop51ColorIndex
 90
      256
102
RTVSPost2010Prop51ColorRGB
 90
-16777216
102
RTVSPost2010PropOp51
 70
     0
102
RTVSPost2010Prop52
140
1.0
102
RTVSPost2010PropOp52
 70
     0
102
RTVSPost2010Prop53
 90
        2
102
RTVSPost2010PropOp53
 70
     1
102
RTVSPost2010Prop54
  1
strokes_ogs.tif
102
RTVSPost2010PropOp54
 70
     1
102
RTVSPost2010Prop55
280
     0
102
RTVSPost2010PropOp55
 70
     1
102
RTVSPost2010Prop56
140
1.0
102
RTVSPost2010PropOp56
 70
     1
102
RTVSPost2010Prop57
140
1.0
102
RTVSPost2010PropOp57
 70
     1
  0
XRECORD
  5
220
102
{ACAD_REACTORS
330
21F
102
}
330
21F
100
AcDbXrecord
280
     1
102
RTVSPropertyOp0
 70
     1
102
RTVSPropertyOp1
 70
     1
102
RTVSPropertyOp2
 70
     1
102
RTVSPropertyOp3
 70
     1
102
RTVSPropertyOp4
 70
     1
102
RTVSPropertyOp5
 70
     1
102
RTVSPropertyOp6
 70
     1
102
RTVSPropertyOp7
 70
     1
102
RTVSPropertyOp8
 70
     1
102
RTVSPropertyOp9
 70
     1
102
RTVSPropertyOp10
 70
     1
102
RTVSPropertyOp11
 70
     1
102
RTVSPropertyOp12
 70
     1
102
RTVSPropertyOp13
 70
     1
102
RTVSPropertyOp14
 70
     1
102
RTVSPropertyOp15
 70
     1
102
RTVSPropertyOp16
 70
     1
102
RTVSPropertyOp17
 70
     1
102
RTVSPropertyOp18
 70
     1
102
RTVSPropertyOp19
 70
     1
102
RTVSPropertyOp20
 70
     1
102
RTVSPropertyOp21
 70
     1
102
RTVSPropertyOp22
 70
     1
102
RTVSPropertyOp23
 70
     1
102
RTVSPropertyOp24
 70
     1
102
RTVSPropertyOp25
 70
     1
102
RTVSPropertyOp26
 70
     1
102
RTVSPropertyOp27
 70
     1
102
RTVSPropertyOp28
 70
     1
102
RTVSPropertyOp29
 70
     1
102
RTVSPropertyOp30
 70
     1
102
RTVSPropertyOp31
 70
     1
102
RTVSPropertyOp32
 70
     1
102
RTVSPropertyOp33
 70
     1
102
RTVSPropertyOp34
 70
     1
102
RTVSPropertyOp35
 70
     1
102
RTVSPropertyOp36
 70
     1
102
RTVSPropertyOp37
 70
     1
102
RTVSPropertyOp38
 70
     1
102
RTVSPropertyOp39
 70
     1
102
RTVSPropertyOp40
 70
     1
102
RTVSPropertyOp41
 70
     1
102
RTVSPropertyOp42
 70
     1
102
RTVSPropertyOp43
 70
     1
102
RTVSPropertyOp44
 70
     1
102
RTVSPropertyOp45
 70
     1
102
RTVSPropertyOp46
 70
     1
102
RTVSPropertyOp47
 70
     1
102
RTVSPropertyOp48
 70
     1
102
RTVSPropertyOp49
 70
     1
102
RTVSPropertyOp50
 70
     1
102
RTVSPropertyOp51
 70
     0
102
RTVSPropertyOp52
 70
     0
102
RTVSPropertyOp53
 70
     1
102
RTVSPropertyOp54
 70
     1
102
RTVSPropertyOp55
 70
     1
102
RTVSPropertyOp56
 70
     1
102
RTVSPropertyOp57
 70
     1
102
RTVSPost2010Prop28
280
     0
102
RTVSPost2010PropOp28
 70
     1
102
RTVSPost2010Prop29
280
     1
102
RTVSPost2010PropOp29
 70
     1
102
RTVSPost2010Prop30
280
     1
102
RTVSPost2010PropOp30
 70
     1
102
RTVSPost2010Prop31
280
     0
102
RTVSPost2010PropOp31
 70
     1
102
RTVSPost2010Prop32
280
     0
102
RTVSPost2010PropOp32
 70
     1
102
RTVSPost2010Prop33
280
     0
102
RTVSPost2010PropOp33
 70
     1
102
RTVSPost2010Prop34
280
     0
102
RTVSPost2010PropOp34
 70
     1
102
RTVSPost2010Prop35
280
     0
102
RTVSPost2010PropOp35
 70
     1
102
RTVSPost2010Prop36
280
     0
102
RTVSPost2010PropOp36
 70
     1
102
RTVSPost2010Prop37
 90
       50
102
RTVSPost2010PropOp37
 70
     1
102
RTVSPost2010Prop38
140
0.0
102
RTVSPost2010PropOp38
 70
     1
102
RTVSPost2010Prop39
140
1.0
102
RTVSPost2010PropOp39
 70
     1
102
RTVSPost2010Prop40
 90
        0
102
RTVSPost2010PropOp40
 70
     1
102
RTVSPost2010Prop41ColorIndex
 90
       18
102
RTVSPost2010Prop41ColorRGB
 90
        0
102
RTVSPost2010PropOp41
 70
     1
102
RTVSPost2010Prop42
 90
       50
102
RTVSPost2010PropOp42
 70
     1
102
RTVSPost2010Prop43
 90
        3
102
RTVSPost2010PropOp43
 70
     1
102
RTVSPost2010Prop44ColorIndex
 90
        5
102
RTVSPost2010Prop44ColorRGB
 90
      255
102
RTVSPost2010PropOp44
 70
     1
102
RTVSPost2010Prop45
280
     0
102
RTVSPost2010PropOp45
 70
     1
102
RTVSPost2010Prop46
 90
       50
102
RTVSPost2010PropOp46
 70
     1
102
RTVSPost2010Prop47
 90
       50
102
RTVSPost2010PropOp47
 70
     1
102
RTVSPost2010Prop48
 90
       50
102
RTVSPost2010PropOp48
 70
     1
102
RTVSPost2010Prop49
280
     0
102
RTVSPost2010PropOp49
 70
     1
102
RTVSPost2010Prop50
 90
       50
102
RTVSPost2010PropOp50
 70
     1
102
RTVSPost2010Prop51ColorIndex
 90
      256
102
RTVSPost2010Prop51ColorRGB
 90
-16777216
102
RTVSPost2010PropOp51
 70
     0
102
RTVSPost2010Prop52
140
1.0
102
RTVSPost2010PropOp52
 70
     0
102
RTVSPost2010Prop53
 90
        2
102
RTVSPost2010PropOp53
 70
     1
102
RTVSPost2010Prop54
  1
strokes_ogs.tif
102
RTVSPost2010PropOp54
 70
     1
102
RTVSPost2010Prop55
280
     0
102
RTVSPost2010PropOp55
 70
     1
102
RTVSPost2010Prop56
140
1.0
102
RTVSPost2010PropOp56
 70
     1
102
RTVSPost2010Prop57
140
1.0
102
RTVSPost2010PropOp57
 70
     1
  0
XRECORD
  5
230
102
{ACAD_REACTORS
330
22F
102
}
330
22F
100
AcDbXrecord
280
     1
102
RTVSPropertyOp0
 70
     0
102
RTVSPropertyOp1
 70
     0
102
RTVSPropertyOp2
 70
     0
102
RTVSPropertyOp3
 70
     0
102
RTVSPropertyOp4
 70
     0
102
RTVSPropertyOp5
 70
     0
102
RTVSPropertyOp6
 70
     0
102
RTVSPropertyOp7
 70
     0
102
RTVSPropertyOp8
 70
     0
102
RTVSPropertyOp9
 70
     0
102
RTVSPropertyOp10
 70
     0
102
RTVSPropertyOp11
 70
     0
102
RTVSPropertyOp12
 70
     0
102
RTVSPropertyOp13
 70
     0
102
RTVSPropertyOp14
 70
     2
102
RTVSPropertyOp15
 70
     0
102
RTVSPropertyOp16
 70
     0
102
RTVSPropertyOp17
 70
     0
102
RTVSPropertyOp18
 70
     0
102
RTVSPropertyOp19
 70
     0
102
RTVSPropertyOp20
 70
     0
102
RTVSPropertyOp21
 70
     0
102
RTVSPropertyOp22
 70
     0
102
RTVSPropertyOp23
 70
     0
102
RTVSPropertyOp24
 70
     0
102
RTVSPropertyOp25
 70
     0
102
RTVSPropertyOp26
 70
     0
102
RTVSPropertyOp27
 70
     0
102
RTVSPropertyOp28
 70
     0
102
RTVSPropertyOp29
 70
     0
102
RTVSPropertyOp30
 70
     0
102
RTVSPropertyOp31
 70
     0
102
RTVSPropertyOp32
 70
     0
102
RTVSPropertyOp33
 70
     0
102
RTVSPropertyOp34
 70
     0
102
RTVSPropertyOp35
 70
     0
102
RTVSPropertyOp36
 70
     0
102
RTVSPropertyOp37
 70
     0
102
RTVSPropertyOp38
 70
     0
102
RTVSPropertyOp39
 70
     0
102
RTVSPropertyOp40
 70
     0
102
RTVSPropertyOp41
 70
     0
102
RTVSPropertyOp42
 70
     0
102
RTVSPropertyOp43
 70
     0
102
RTVSPropertyOp44
 70
     0
102
RTVSPropertyOp45
 70
     0
102
RTVSPropertyOp46
 70
     0
102
RTVSPropertyOp47
 70
     0
102
RTVSPropertyOp48
 70
     0
102
RTVSPropertyOp49
 70
     0
102
RTVSPropertyOp50
 70
     0
102
RTVSPropertyOp51
 70
     0
102
RTVSPropertyOp52
 70
     0
102
RTVSPropertyOp53
 70
     0
102
RTVSPropertyOp54
 70
     0
102
RTVSPropertyOp55
 70
     0
102
RTVSPropertyOp56
 70
     0
102
RTVSPropertyOp57
 70
     0
102
RTVSPost2010Prop28
280
     0
102
RTVSPost2010PropOp28
 70
     0
102
RTVSPost2010Prop29
280
     1
102
RTVSPost2010PropOp29
 70
     0
102
RTVSPost2010Prop30
280
     1
102
RTVSPost2010PropOp30
 70
     0
102
RTVSPost2010Prop31
280
     0
102
RTVSPost2010PropOp31
 70
     0
102
RTVSPost2010Prop32
280
     0
102
RTVSPost2010PropOp32
 70
     0
102
RTVSPost2010Prop33
280
     0
102
RTVSPost2010PropOp33
 70
     0
102
RTVSPost2010Prop34
280
     0
102
RTVSPost2010PropOp34
 70
     0
102
RTVSPost2010Prop35
280
     0
102
RTVSPost2010PropOp35
 70
     0
102
RTVSPost2010Prop36
280
     0
102
RTVSPost2010PropOp36
 70
     0
102
RTVSPost2010Prop37
 90
       50
102
RTVSPost2010PropOp37
 70
     0
102
RTVSPost2010Prop38
140
0.0
102
RTVSPost2010PropOp38
 70
     0
102
RTVSPost2010Prop39
140
1.0
102
RTVSPost2010PropOp39
 70
     0
102
RTVSPost2010Prop40
 90
        0
102
RTVSPost2010PropOp40
 70
     0
102
RTVSPost2010Prop41ColorIndex
 90
       18
102
RTVSPost2010Prop41ColorRGB
 90
        0
102
RTVSPost2010PropOp41
 70
     0
102
RTVSPost2010Prop42
 90
       50
102
RTVSPost2010PropOp42
 70
     0
102
RTVSPost2010Prop43
 90
        3
102
RTVSPost2010PropOp43
 70
     0
102
RTVSPost2010Prop44ColorIndex
 90
        5
102
RTVSPost2010Prop44ColorRGB
 90
      255
102
RTVSPost2010PropOp44
 70
     0
102
RTVSPost2010Prop45
280
     0
102
RTVSPost2010PropOp45
 70
     0
102
RTVSPost2010Prop46
 90
       50
102
RTVSPost2010PropOp46
 70
     0
102
RTVSPost2010Prop47
 90
       50
102
RTVSPost2010PropOp47
 70
     0
102
RTVSPost2010Prop48
 90
       50
102
RTVSPost2010PropOp48
 70
     0
102
RTVSPost2010Prop49
280
     0
102
RTVSPost2010PropOp49
 70
     0
102
RTVSPost2010Prop50
 90
       50
102
RTVSPost2010PropOp50
 70
     0
102
RTVSPost2010Prop51ColorIndex
 90
      256
102
RTVSPost2010Prop51ColorRGB
 90
-16777216
102
RTVSPost2010PropOp51
 70
     0
102
RTVSPost2010Prop52
140
1.0
102
RTVSPost2010PropOp52
 70
     0
102
RTVSPost2010Prop53
 90
        2
102
RTVSPost2010PropOp53
 70
     0
102
RTVSPost2010Prop54
  1
strokes_ogs.tif
102
RTVSPost2010PropOp54
 70
     0
102
RTVSPost2010Prop55
280
     0
102
RTVSPost2010PropOp55
 70
     0
102
RTVSPost2010Prop56
140
1.0
102
RTVSPost2010PropOp56
 70
     0
102
RTVSPost2010Prop57
140
1.0
102
RTVSPost2010PropOp57
 70
     0
  0
XRECORD
  5
228
102
{ACAD_REACTORS
330
227
102
}
330
227
100
AcDbXrecord
280
     1
102
RTVSPropertyOp0
 70
     1
102
RTVSPropertyOp1
 70
     1
102
RTVSPropertyOp2
 70
     1
102
RTVSPropertyOp3
 70
     1
102
RTVSPropertyOp4
 70
     1
102
RTVSPropertyOp5
 70
     1
102
RTVSPropertyOp6
 70
     1
102
RTVSPropertyOp7
 70
     1
102
RTVSPropertyOp8
 70
     1
102
RTVSPropertyOp9
 70
     1
102
RTVSPropertyOp10
 70
     1
102
RTVSPropertyOp11
 70
     1
102
RTVSPropertyOp12
 70
     1
102
RTVSPropertyOp13
 70
     1
102
RTVSPropertyOp14
 70
     1
102
RTVSPropertyOp15
 70
     1
102
RTVSPropertyOp16
 70
     1
102
RTVSPropertyOp17
 70
     1
102
RTVSPropertyOp18
 70
     1
102
RTVSPropertyOp19
 70
     1
102
RTVSPropertyOp20
 70
     1
102
RTVSPropertyOp21
 70
     1
102
RTVSPropertyOp22
 70
     1
102
RTVSPropertyOp23
 70
     1
102
RTVSPropertyOp24
 70
     1
102
RTVSPropertyOp25
 70
     1
102
RTVSPropertyOp26
 70
     1
102
RTVSPropertyOp27
 70
     1
102
RTVSPropertyOp28
 70
     1
102
RTVSPropertyOp29
 70
     1
102
RTVSPropertyOp30
 70
     1
102
RTVSPropertyOp31
 70
     1
102
RTVSPropertyOp32
 70
     1
102
RTVSPropertyOp33
 70
     1
102
RTVSPropertyOp34
 70
     1
102
RTVSPropertyOp35
 70
     1
102
RTVSPropertyOp36
 70
     1
102
RTVSPropertyOp37
 70
     1
102
RTVSPropertyOp38
 70
     1
102
RTVSPropertyOp39
 70
     1
102
RTVSPropertyOp40
 70
     1
102
RTVSPropertyOp41
 70
     1
102
RTVSPropertyOp42
 70
     1
102
RTVSPropertyOp43
 70
     1
102
RTVSPropertyOp44
 70
     1
102
RTVSPropertyOp45
 70
     1
102
RTVSPropertyOp46
 70
     1
102
RTVSPropertyOp47
 70
     1
102
RTVSPropertyOp48
 70
     1
102
RTVSPropertyOp49
 70
     1
102
RTVSPropertyOp50
 70
     1
102
RTVSPropertyOp51
 70
     0
102
RTVSPropertyOp52
 70
     0
102
RTVSPropertyOp53
 70
     1
102
RTVSPropertyOp54
 70
     1
102
RTVSPropertyOp55
 70
     1
102
RTVSPropertyOp56
 70
     1
102
RTVSPropertyOp57
 70
     1
102
RTVSPost2010Prop28
280
     0
102
RTVSPost2010PropOp28
 70
     1
102
RTVSPost2010Prop29
280
     1
102
RTVSPost2010PropOp29
 70
     1
102
RTVSPost2010Prop30
280
     1
102
RTVSPost2010PropOp30
 70
     1
102
RTVSPost2010Prop31
280
     0
102
RTVSPost2010PropOp31
 70
     1
102
RTVSPost2010Prop32
280
     0
102
RTVSPost2010PropOp32
 70
     1
102
RTVSPost2010Prop33
280
     0
102
RTVSPost2010PropOp33
 70
     1
102
RTVSPost2010Prop34
280
     0
102
RTVSPost2010PropOp34
 70
     1
102
RTVSPost2010Prop35
280
     0
102
RTVSPost2010PropOp35
 70
     1
102
RTVSPost2010Prop36
280
     0
102
RTVSPost2010PropOp36
 70
     1
102
RTVSPost2010Prop37
 90
       50
102
RTVSPost2010PropOp37
 70
     1
102
RTVSPost2010Prop38
140
0.0
102
RTVSPost2010PropOp38
 70
     1
102
RTVSPost2010Prop39
140
1.0
102
RTVSPost2010PropOp39
 70
     1
102
RTVSPost2010Prop40
 90
        0
102
RTVSPost2010PropOp40
 70
     1
102
RTVSPost2010Prop41ColorIndex
 90
       18
102
RTVSPost2010Prop41ColorRGB
 90
        0
102
RTVSPost2010PropOp41
 70
     1
102
RTVSPost2010Prop42
 90
       50
102
RTVSPost2010PropOp42
 70
     1
102
RTVSPost2010Prop43
 90
        3
102
RTVSPost2010PropOp43
 70
     1
102
RTVSPost2010Prop44ColorIndex
 90
        5
102
RTVSPost2010Prop44ColorRGB
 90
      255
102
RTVSPost2010PropOp44
 70
     1
102
RTVSPost2010Prop45
280
     0
102
RTVSPost2010PropOp45
 70
     1
102
RTVSPost2010Prop46
 90
       50
102
RTVSPost2010PropOp46
 70
     1
102
RTVSPost2010Prop47
 90
       50
102
RTVSPost2010PropOp47
 70
     1
102
RTVSPost2010Prop48
 90
       50
102
RTVSPost2010PropOp48
 70
     1
102
RTVSPost2010Prop49
280
     0
102
RTVSPost2010PropOp49
 70
     1
102
RTVSPost2010Prop50
 90
       50
102
RTVSPost2010PropOp50
 70
     1
102
RTVSPost2010Prop51ColorIndex
 90
      256
102
RTVSPost2010Prop51ColorRGB
 90
-16777216
102
RTVSPost2010PropOp51
 70
     0
102
RTVSPost2010Prop52
140
1.0
102
RTVSPost2010PropOp52
 70
     0
102
RTVSPost2010Prop53
 90
        2
102
RTVSPost2010PropOp53
 70
     1
102
RTVSPost2010Prop54
  1
strokes_ogs.tif
102
RTVSPost2010PropOp54
 70
     1
102
RTVSPost2010Prop55
280
     0
102
RTVSPost2010PropOp55
 70
     1
102
RTVSPost2010Prop56
140
1.0
102
RTVSPost2010PropOp56
 70
     1
102
RTVSPost2010Prop57
140
1.0
102
RTVSPost2010PropOp57
 70
     1
  0
XRECORD
  5
20C
102
{ACAD_REACTORS
330
20B
102
}
330
20B
100
AcDbXrecord
280
     1
102
RTVSPropertyOp0
 70
     1
102
RTVSPropertyOp1
 70
     1
102
RTVSPropertyOp2
 70
     1
102
RTVSPropertyOp3
 70
     1
102
RTVSPropertyOp4
 70
     1
102
RTVSPropertyOp5
 70
     1
102
RTVSPropertyOp6
 70
     1
102
RTVSPropertyOp7
 70
     1
102
RTVSPropertyOp8
 70
     1
102
RTVSPropertyOp9
 70
     1
102
RTVSPropertyOp10
 70
     1
102
RTVSPropertyOp11
 70
     1
102
RTVSPropertyOp12
 70
     1
102
RTVSPropertyOp13
 70
     1
102
RTVSPropertyOp14
 70
     1
102
RTVSPropertyOp15
 70
     1
102
RTVSPropertyOp16
 70
     1
102
RTVSPropertyOp17
 70
     1
102
RTVSPropertyOp18
 70
     1
102
RTVSPropertyOp19
 70
     1
102
RTVSPropertyOp20
 70
     1
102
RTVSPropertyOp21
 70
     1
102
RTVSPropertyOp22
 70
     1
102
RTVSPropertyOp23
 70
     1
102
RTVSPropertyOp24
 70
     1
102
RTVSPropertyOp25
 70
     1
102
RTVSPropertyOp26
 70
     1
102
RTVSPropertyOp27
 70
     1
102
RTVSPropertyOp28
 70
     1
102
RTVSPropertyOp29
 70
     1
102
RTVSPropertyOp30
 70
     1
102
RTVSPropertyOp31
 70
     1
102
RTVSPropertyOp32
 70
     1
102
RTVSPropertyOp33
 70
     1
102
RTVSPropertyOp34
 70
     1
102
RTVSPropertyOp35
 70
     1
102
RTVSPropertyOp36
 70
     1
102
RTVSPropertyOp37
 70
     1
102
RTVSPropertyOp38
 70
     1
102
RTVSPropertyOp39
 70
     1
102
RTVSPropertyOp40
 70
     1
102
RTVSPropertyOp41
 70
     1
102
RTVSPropertyOp42
 70
     1
102
RTVSPropertyOp43
 70
     1
102
RTVSPropertyOp44
 70
     1
102
RTVSPropertyOp45
 70
     1
102
RTVSPropertyOp46
 70
     1
102
RTVSPropertyOp47
 70
     1
102
RTVSPropertyOp48
 70
     1
102
RTVSPropertyOp49
 70
     1
102
RTVSPropertyOp50
 70
     1
102
RTVSPropertyOp51
 70
     0
102
RTVSPropertyOp52
 70
     0
102
RTVSPropertyOp53
 70
     1
102
RTVSPropertyOp54
 70
     1
102
RTVSPropertyOp55
 70
     1
102
RTVSPropertyOp56
 70
     1
102
RTVSPropertyOp57
 70
     1
102
RTVSPost2010Prop28
280
     0
102
RTVSPost2010PropOp28
 70
     1
102
RTVSPost2010Prop29
280
     1
102
RTVSPost2010PropOp29
 70
     1
102
RTVSPost2010Prop30
280
     1
102
RTVSPost2010PropOp30
 70
     1
102
RTVSPost2010Prop31
280
     0
102
RTVSPost2010PropOp31
 70
     1
102
RTVSPost2010Prop32
280
     0
102
RTVSPost2010PropOp32
 70
     1
102
RTVSPost2010Prop33
280
     0
102
RTVSPost2010PropOp33
 70
     1
102
RTVSPost2010Prop34
280
     0
102
RTVSPost2010PropOp34
 70
     1
102
RTVSPost2010Prop35
280
     0
102
RTVSPost2010PropOp35
 70
     1
102
RTVSPost2010Prop36
280
     0
102
RTVSPost2010PropOp36
 70
     1
102
RTVSPost2010Prop37
 90
       50
102
RTVSPost2010PropOp37
 70
     1
102
RTVSPost2010Prop38
140
0.0
102
RTVSPost2010PropOp38
 70
     1
102
RTVSPost2010Prop39
140
1.0
102
RTVSPost2010PropOp39
 70
     1
102
RTVSPost2010Prop40
 90
        0
102
RTVSPost2010PropOp40
 70
     1
102
RTVSPost2010Prop41ColorIndex
 90
       18
102
RTVSPost2010Prop41ColorRGB
 90
        0
102
RTVSPost2010PropOp41
 70
     1
102
RTVSPost2010Prop42
 90
       50
102
RTVSPost2010PropOp42
 70
     1
102
RTVSPost2010Prop43
 90
        3
102
RTVSPost2010PropOp43
 70
     1
102
RTVSPost2010Prop44ColorIndex
 90
        5
102
RTVSPost2010Prop44ColorRGB
 90
      255
102
RTVSPost2010PropOp44
 70
     1
102
RTVSPost2010Prop45
280
     0
102
RTVSPost2010PropOp45
 70
     1
102
RTVSPost2010Prop46
 90
       50
102
RTVSPost2010PropOp46
 70
     1
102
RTVSPost2010Prop47
 90
       50
102
RTVSPost2010PropOp47
 70
     1
102
RTVSPost2010Prop48
 90
       50
102
RTVSPost2010PropOp48
 70
     1
102
RTVSPost2010Prop49
280
     0
102
RTVSPost2010PropOp49
 70
     1
102
RTVSPost2010Prop50
 90
       50
102
RTVSPost2010PropOp50
 70
     1
102
RTVSPost2010Prop51ColorIndex
 90
      256
102
RTVSPost2010Prop51ColorRGB
 90
-16777216
102
RTVSPost2010PropOp51
 70
     0
102
RTVSPost2010Prop52
140
1.0
102
RTVSPost2010PropOp52
 70
     0
102
RTVSPost2010Prop53
 90
        2
102
RTVSPost2010PropOp53
 70
     1
102
RTVSPost2010Prop54
  1
strokes_ogs.tif
102
RTVSPost2010PropOp54
 70
     1
102
RTVSPost2010Prop55
280
     0
102
RTVSPost2010PropOp55
 70
     1
102
RTVSPost2010Prop56
140
1.0
102
RTVSPost2010PropOp56
 70
     1
102
RTVSPost2010Prop57
140
1.0
102
RTVSPost2010PropOp57
 70
     1
  0
XRECORD
  5
20E
102
{ACAD_REACTORS
330
20D
102
}
330
20D
100
AcDbXrecord
280
     1
102
RTVSPropertyOp0
 70
     1
102
RTVSPropertyOp1
 70
     1
102
RTVSPropertyOp2
 70
     1
102
RTVSPropertyOp3
 70
     1
102
RTVSPropertyOp4
 70
     1
102
RTVSPropertyOp5
 70
     1
102
RTVSPropertyOp6
 70
     1
102
RTVSPropertyOp7
 70
     1
102
RTVSPropertyOp8
 70
     1
102
RTVSPropertyOp9
 70
     1
102
RTVSPropertyOp10
 70
     1
102
RTVSPropertyOp11
 70
     1
102
RTVSPropertyOp12
 70
     1
102
RTVSPropertyOp13
 70
     1
102
RTVSPropertyOp14
 70
     1
102
RTVSPropertyOp15
 70
     1
102
RTVSPropertyOp16
 70
     1
102
RTVSPropertyOp17
 70
     1
102
RTVSPropertyOp18
 70
     1
102
RTVSPropertyOp19
 70
     1
102
RTVSPropertyOp20
 70
     1
102
RTVSPropertyOp21
 70
     1
102
RTVSPropertyOp22
 70
     1
102
RTVSPropertyOp23
 70
     1
102
RTVSPropertyOp24
 70
     1
102
RTVSPropertyOp25
 70
     1
102
RTVSPropertyOp26
 70
     1
102
RTVSPropertyOp27
 70
     1
102
RTVSPropertyOp28
 70
     1
102
RTVSPropertyOp29
 70
     1
102
RTVSPropertyOp30
 70
     1
102
RTVSPropertyOp31
 70
     1
102
RTVSPropertyOp32
 70
     1
102
RTVSPropertyOp33
 70
     1
102
RTVSPropertyOp34
 70
     1
102
RTVSPropertyOp35
 70
     1
102
RTVSPropertyOp36
 70
     1
102
RTVSPropertyOp37
 70
     1
102
RTVSPropertyOp38
 70
     1
102
RTVSPropertyOp39
 70
     1
102
RTVSPropertyOp40
 70
     1
102
RTVSPropertyOp41
 70
     1
102
RTVSPropertyOp42
 70
     1
102
RTVSPropertyOp43
 70
     1
102
RTVSPropertyOp44
 70
     1
102
RTVSPropertyOp45
 70
     1
102
RTVSPropertyOp46
 70
     1
102
RTVSPropertyOp47
 70
     1
102
RTVSPropertyOp48
 70
     1
102
RTVSPropertyOp49
 70
     1
102
RTVSPropertyOp50
 70
     1
102
RTVSPropertyOp51
 70
     0
102
RTVSPropertyOp52
 70
     0
102
RTVSPropertyOp53
 70
     1
102
RTVSPropertyOp54
 70
     1
102
RTVSPropertyOp55
 70
     1
102
RTVSPropertyOp56
 70
     1
102
RTVSPropertyOp57
 70
     1
102
RTVSPost2010Prop28
280
     0
102
RTVSPost2010PropOp28
 70
     1
102
RTVSPost2010Prop29
280
     1
102
RTVSPost2010PropOp29
 70
     1
102
RTVSPost2010Prop30
280
     1
102
RTVSPost2010PropOp30
 70
     1
102
RTVSPost2010Prop31
280
     0
102
RTVSPost2010PropOp31
 70
     1
102
RTVSPost2010Prop32
280
     0
102
RTVSPost2010PropOp32
 70
     1
102
RTVSPost2010Prop33
280
     0
102
RTVSPost2010PropOp33
 70
     1
102
RTVSPost2010Prop34
280
     0
102
RTVSPost2010PropOp34
 70
     1
102
RTVSPost2010Prop35
280
     0
102
RTVSPost2010PropOp35
 70
     1
102
RTVSPost2010Prop36
280
     0
102
RTVSPost2010PropOp36
 70
     1
102
RTVSPost2010Prop37
 90
       50
102
RTVSPost2010PropOp37
 70
     1
102
RTVSPost2010Prop38
140
0.0
102
RTVSPost2010PropOp38
 70
     1
102
RTVSPost2010Prop39
140
1.0
102
RTVSPost2010PropOp39
 70
     1
102
RTVSPost2010Prop40
 90
        0
102
RTVSPost2010PropOp40
 70
     1
102
RTVSPost2010Prop41ColorIndex
 90
       18
102
RTVSPost2010Prop41ColorRGB
 90
        0
102
RTVSPost2010PropOp41
 70
     1
102
RTVSPost2010Prop42
 90
       50
102
RTVSPost2010PropOp42
 70
     1
102
RTVSPost2010Prop43
 90
        3
102
RTVSPost2010PropOp43
 70
     1
102
RTVSPost2010Prop44ColorIndex
 90
        5
102
RTVSPost2010Prop44ColorRGB
 90
      255
102
RTVSPost2010PropOp44
 70
     1
102
RTVSPost2010Prop45
280
     0
102
RTVSPost2010PropOp45
 70
     1
102
RTVSPost2010Prop46
 90
       50
102
RTVSPost2010PropOp46
 70
     1
102
RTVSPost2010Prop47
 90
       50
102
RTVSPost2010PropOp47
 70
     1
102
RTVSPost2010Prop48
 90
       50
102
RTVSPost2010PropOp48
 70
     1
102
RTVSPost2010Prop49
280
     0
102
RTVSPost2010PropOp49
 70
     1
102
RTVSPost2010Prop50
 90
       50
102
RTVSPost2010PropOp50
 70
     1
102
RTVSPost2010Prop51ColorIndex
 90
      256
102
RTVSPost2010Prop51ColorRGB
 90
-16777216
102
RTVSPost2010PropOp51
 70
     0
102
RTVSPost2010Prop52
140
1.0
102
RTVSPost2010PropOp52
 70
     0
102
RTVSPost2010Prop53
 90
        2
102
RTVSPost2010PropOp53
 70
     1
102
RTVSPost2010Prop54
  1
strokes_ogs.tif
102
RTVSPost2010PropOp54
 70
     1
102
RTVSPost2010Prop55
280
     0
102
RTVSPost2010PropOp55
 70
     1
102
RTVSPost2010Prop56
140
1.0
102
RTVSPost2010PropOp56
 70
     1
102
RTVSPost2010Prop57
140
1.0
102
RTVSPost2010PropOp57
 70
     1
  0
XRECORD
  5
210
102
{ACAD_REACTORS
330
20F
102
}
330
20F
100
AcDbXrecord
280
     1
102
RTVSPropertyOp0
 70
     1
102
RTVSPropertyOp1
 70
     1
102
RTVSPropertyOp2
 70
     1
102
RTVSPropertyOp3
 70
     1
102
RTVSPropertyOp4
 70
     1
102
RTVSPropertyOp5
 70
     1
102
RTVSPropertyOp6
 70
     1
102
RTVSPropertyOp7
 70
     1
102
RTVSPropertyOp8
 70
     1
102
RTVSPropertyOp9
 70
     1
102
RTVSPropertyOp10
 70
     1
102
RTVSPropertyOp11
 70
     1
102
RTVSPropertyOp12
 70
     1
102
RTVSPropertyOp13
 70
     1
102
RTVSPropertyOp14
 70
     1
102
RTVSPropertyOp15
 70
     1
102
RTVSPropertyOp16
 70
     1
102
RTVSPropertyOp17
 70
     1
102
RTVSPropertyOp18
 70
     1
102
RTVSPropertyOp19
 70
     1
102
RTVSPropertyOp20
 70
     1
102
RTVSPropertyOp21
 70
     1
102
RTVSPropertyOp22
 70
     1
102
RTVSPropertyOp23
 70
     1
102
RTVSPropertyOp24
 70
     1
102
RTVSPropertyOp25
 70
     1
102
RTVSPropertyOp26
 70
     1
102
RTVSPropertyOp27
 70
     1
102
RTVSPropertyOp28
 70
     1
102
RTVSPropertyOp29
 70
     1
102
RTVSPropertyOp30
 70
     1
102
RTVSPropertyOp31
 70
     1
102
RTVSPropertyOp32
 70
     1
102
RTVSPropertyOp33
 70
     1
102
RTVSPropertyOp34
 70
     1
102
RTVSPropertyOp35
 70
     1
102
RTVSPropertyOp36
 70
     1
102
RTVSPropertyOp37
 70
     1
102
RTVSPropertyOp38
 70
     1
102
RTVSPropertyOp39
 70
     1
102
RTVSPropertyOp40
 70
     1
102
RTVSPropertyOp41
 70
     1
102
RTVSPropertyOp42
 70
     1
102
RTVSPropertyOp43
 70
     1
102
RTVSPropertyOp44
 70
     1
102
RTVSPropertyOp45
 70
     1
102
RTVSPropertyOp46
 70
     1
102
RTVSPropertyOp47
 70
     1
102
RTVSPropertyOp48
 70
     1
102
RTVSPropertyOp49
 70
     1
102
RTVSPropertyOp50
 70
     1
102
RTVSPropertyOp51
 70
     0
102
RTVSPropertyOp52
 70
     0
102
RTVSPropertyOp53
 70
     1
102
RTVSPropertyOp54
 70
     1
102
RTVSPropertyOp55
 70
     1
102
RTVSPropertyOp56
 70
     1
102
RTVSPropertyOp57
 70
     1
102
RTVSPost2010Prop28
280
     0
102
RTVSPost2010PropOp28
 70
     1
102
RTVSPost2010Prop29
280
     1
102
RTVSPost2010PropOp29
 70
     1
102
RTVSPost2010Prop30
280
     1
102
RTVSPost2010PropOp30
 70
     1
102
RTVSPost2010Prop31
280
     0
102
RTVSPost2010PropOp31
 70
     1
102
RTVSPost2010Prop32
280
     0
102
RTVSPost2010PropOp32
 70
     1
102
RTVSPost2010Prop33
280
     0
102
RTVSPost2010PropOp33
 70
     1
102
RTVSPost2010Prop34
280
     0
102
RTVSPost2010PropOp34
 70
     1
102
RTVSPost2010Prop35
280
     0
102
RTVSPost2010PropOp35
 70
     1
102
RTVSPost2010Prop36
280
     0
102
RTVSPost2010PropOp36
 70
     1
102
RTVSPost2010Prop37
 90
       50
102
RTVSPost2010PropOp37
 70
     1
102
RTVSPost2010Prop38
140
0.0
102
RTVSPost2010PropOp38
 70
     1
102
RTVSPost2010Prop39
140
1.0
102
RTVSPost2010PropOp39
 70
     1
102
RTVSPost2010Prop40
 90
        0
102
RTVSPost2010PropOp40
 70
     1
102
RTVSPost2010Prop41ColorIndex
 90
       18
102
RTVSPost2010Prop41ColorRGB
 90
        0
102
RTVSPost2010PropOp41
 70
     1
102
RTVSPost2010Prop42
 90
       50
102
RTVSPost2010PropOp42
 70
     1
102
RTVSPost2010Prop43
 90
        3
102
RTVSPost2010PropOp43
 70
     1
102
RTVSPost2010Prop44ColorIndex
 90
        5
102
RTVSPost2010Prop44ColorRGB
 90
      255
102
RTVSPost2010PropOp44
 70
     1
102
RTVSPost2010Prop45
280
     0
102
RTVSPost2010PropOp45
 70
     1
102
RTVSPost2010Prop46
 90
       50
102
RTVSPost2010PropOp46
 70
     1
102
RTVSPost2010Prop47
 90
       50
102
RTVSPost2010PropOp47
 70
     1
102
RTVSPost2010Prop48
 90
       50
102
RTVSPost2010PropOp48
 70
     1
102
RTVSPost2010Prop49
280
     0
102
RTVSPost2010PropOp49
 70
     1
102
RTVSPost2010Prop50
 90
       50
102
RTVSPost2010PropOp50
 70
     1
102
RTVSPost2010Prop51ColorIndex
 90
      256
102
RTVSPost2010Prop51ColorRGB
 90
-16777216
102
RTVSPost2010PropOp51
 70
     0
102
RTVSPost2010Prop52
140
1.0
102
RTVSPost2010PropOp52
 70
     0
102
RTVSPost2010Prop53
 90
        2
102
RTVSPost2010PropOp53
 70
     1
102
RTVSPost2010Prop54
  1
strokes_ogs.tif
102
RTVSPost2010PropOp54
 70
     1
102
RTVSPost2010Prop55
280
     0
102
RTVSPost2010PropOp55
 70
     1
102
RTVSPost2010Prop56
140
1.0
102
RTVSPost2010PropOp56
 70
     1
102
RTVSPost2010Prop57
140
1.0
102
RTVSPost2010PropOp57
 70
     1
  0
XRECORD
  5
212
102
{ACAD_REACTORS
330
211
102
}
330
211
100
AcDbXrecord
280
     1
102
RTVSPropertyOp0
 70
     1
102
RTVSPropertyOp1
 70
     1
102
RTVSPropertyOp2
 70
     1
102
RTVSPropertyOp3
 70
     1
102
RTVSPropertyOp4
 70
     1
102
RTVSPropertyOp5
 70
     1
102
RTVSPropertyOp6
 70
     1
102
RTVSPropertyOp7
 70
     1
102
RTVSPropertyOp8
 70
     1
102
RTVSPropertyOp9
 70
     1
102
RTVSPropertyOp10
 70
     1
102
RTVSPropertyOp11
 70
     1
102
RTVSPropertyOp12
 70
     1
102
RTVSPropertyOp13
 70
     1
102
RTVSPropertyOp14
 70
     1
102
RTVSPropertyOp15
 70
     1
102
RTVSPropertyOp16
 70
     1
102
RTVSPropertyOp17
 70
     1
102
RTVSPropertyOp18
 70
     1
102
RTVSPropertyOp19
 70
     1
102
RTVSPropertyOp20
 70
     1
102
RTVSPropertyOp21
 70
     1
102
RTVSPropertyOp22
 70
     1
102
RTVSPropertyOp23
 70
     1
102
RTVSPropertyOp24
 70
     1
102
RTVSPropertyOp25
 70
     1
102
RTVSPropertyOp26
 70
     1
102
RTVSPropertyOp27
 70
     1
102
RTVSPropertyOp28
 70
     1
102
RTVSPropertyOp29
 70
     1
102
RTVSPropertyOp30
 70
     1
102
RTVSPropertyOp31
 70
     1
102
RTVSPropertyOp32
 70
     1
102
RTVSPropertyOp33
 70
     1
102
RTVSPropertyOp34
 70
     1
102
RTVSPropertyOp35
 70
     1
102
RTVSPropertyOp36
 70
     1
102
RTVSPropertyOp37
 70
     1
102
RTVSPropertyOp38
 70
     1
102
RTVSPropertyOp39
 70
     1
102
RTVSPropertyOp40
 70
     1
102
RTVSPropertyOp41
 70
     1
102
RTVSPropertyOp42
 70
     1
102
RTVSPropertyOp43
 70
     1
102
RTVSPropertyOp44
 70
     1
102
RTVSPropertyOp45
 70
     1
102
RTVSPropertyOp46
 70
     1
102
RTVSPropertyOp47
 70
     1
102
RTVSPropertyOp48
 70
     1
102
RTVSPropertyOp49
 70
     1
102
RTVSPropertyOp50
 70
     1
102
RTVSPropertyOp51
 70
     0
102
RTVSPropertyOp52
 70
     0
102
RTVSPropertyOp53
 70
     1
102
RTVSPropertyOp54
 70
     1
102
RTVSPropertyOp55
 70
     1
102
RTVSPropertyOp56
 70
     1
102
RTVSPropertyOp57
 70
     1
102
RTVSPost2010Prop28
280
     0
102
RTVSPost2010PropOp28
 70
     1
102
RTVSPost2010Prop29
280
     1
102
RTVSPost2010PropOp29
 70
     1
102
RTVSPost2010Prop30
280
     1
102
RTVSPost2010PropOp30
 70
     1
102
RTVSPost2010Prop31
280
     0
102
RTVSPost2010PropOp31
 70
     1
102
RTVSPost2010Prop32
280
     0
102
RTVSPost2010PropOp32
 70
     1
102
RTVSPost2010Prop33
280
     0
102
RTVSPost2010PropOp33
 70
     1
102
RTVSPost2010Prop34
280
     0
102
RTVSPost2010PropOp34
 70
     1
102
RTVSPost2010Prop35
280
     0
102
RTVSPost2010PropOp35
 70
     1
102
RTVSPost2010Prop36
280
     0
102
RTVSPost2010PropOp36
 70
     1
102
RTVSPost2010Prop37
 90
       50
102
RTVSPost2010PropOp37
 70
     1
102
RTVSPost2010Prop38
140
0.0
102
RTVSPost2010PropOp38
 70
     1
102
RTVSPost2010Prop39
140
1.0
102
RTVSPost2010PropOp39
 70
     1
102
RTVSPost2010Prop40
 90
        0
102
RTVSPost2010PropOp40
 70
     1
102
RTVSPost2010Prop41ColorIndex
 90
       18
102
RTVSPost2010Prop41ColorRGB
 90
        0
102
RTVSPost2010PropOp41
 70
     1
102
RTVSPost2010Prop42
 90
       50
102
RTVSPost2010PropOp42
 70
     1
102
RTVSPost2010Prop43
 90
        3
102
RTVSPost2010PropOp43
 70
     1
102
RTVSPost2010Prop44ColorIndex
 90
        5
102
RTVSPost2010Prop44ColorRGB
 90
      255
102
RTVSPost2010PropOp44
 70
     1
102
RTVSPost2010Prop45
280
     0
102
RTVSPost2010PropOp45
 70
     1
102
RTVSPost2010Prop46
 90
       50
102
RTVSPost2010PropOp46
 70
     1
102
RTVSPost2010Prop47
 90
       50
102
RTVSPost2010PropOp47
 70
     1
102
RTVSPost2010Prop48
 90
       50
102
RTVSPost2010PropOp48
 70
     1
102
RTVSPost2010Prop49
280
     0
102
RTVSPost2010PropOp49
 70
     1
102
RTVSPost2010Prop50
 90
       50
102
RTVSPost2010PropOp50
 70
     1
102
RTVSPost2010Prop51ColorIndex
 90
      256
102
RTVSPost2010Prop51ColorRGB
 90
-16777216
102
RTVSPost2010PropOp51
 70
     0
102
RTVSPost2010Prop52
140
1.0
102
RTVSPost2010PropOp52
 70
     0
102
RTVSPost2010Prop53
 90
        2
102
RTVSPost2010PropOp53
 70
     1
102
RTVSPost2010Prop54
  1
strokes_ogs.tif
102
RTVSPost2010PropOp54
 70
     1
102
RTVSPost2010Prop55
280
     0
102
RTVSPost2010PropOp55
 70
     1
102
RTVSPost2010Prop56
140
1.0
102
RTVSPost2010PropOp56
 70
     1
102
RTVSPost2010Prop57
140
1.0
102
RTVSPost2010PropOp57
 70
     1
  0
XRECORD
  5
218
102
{ACAD_REACTORS
330
217
102
}
330
217
100
AcDbXrecord
280
     1
102
RTVSPropertyOp0
 70
     1
102
RTVSPropertyOp1
 70
     1
102
RTVSPropertyOp2
 70
     1
102
RTVSPropertyOp3
 70
     1
102
RTVSPropertyOp4
 70
     1
102
RTVSPropertyOp5
 70
     1
102
RTVSPropertyOp6
 70
     1
102
RTVSPropertyOp7
 70
     1
102
RTVSPropertyOp8
 70
     1
102
RTVSPropertyOp9
 70
     1
102
RTVSPropertyOp10
 70
     1
102
RTVSPropertyOp11
 70
     1
102
RTVSPropertyOp12
 70
     1
102
RTVSPropertyOp13
 70
     1
102
RTVSPropertyOp14
 70
     1
102
RTVSPropertyOp15
 70
     1
102
RTVSPropertyOp16
 70
     1
102
RTVSPropertyOp17
 70
     1
102
RTVSPropertyOp18
 70
     1
102
RTVSPropertyOp19
 70
     1
102
RTVSPropertyOp20
 70
     1
102
RTVSPropertyOp21
 70
     1
102
RTVSPropertyOp22
 70
     1
102
RTVSPropertyOp23
 70
     1
102
RTVSPropertyOp24
 70
     1
102
RTVSPropertyOp25
 70
     1
102
RTVSPropertyOp26
 70
     1
102
RTVSPropertyOp27
 70
     1
102
RTVSPropertyOp28
 70
     1
102
RTVSPropertyOp29
 70
     1
102
RTVSPropertyOp30
 70
     1
102
RTVSPropertyOp31
 70
     1
102
RTVSPropertyOp32
 70
     1
102
RTVSPropertyOp33
 70
     1
102
RTVSPropertyOp34
 70
     1
102
RTVSPropertyOp35
 70
     1
102
RTVSPropertyOp36
 70
     1
102
RTVSPropertyOp37
 70
     1
102
RTVSPropertyOp38
 70
     1
102
RTVSPropertyOp39
 70
     1
102
RTVSPropertyOp40
 70
     1
102
RTVSPropertyOp41
 70
     1
102
RTVSPropertyOp42
 70
     1
102
RTVSPropertyOp43
 70
     1
102
RTVSPropertyOp44
 70
     1
102
RTVSPropertyOp45
 70
     1
102
RTVSPropertyOp46
 70
     1
102
RTVSPropertyOp47
 70
     1
102
RTVSPropertyOp48
 70
     1
102
RTVSPropertyOp49
 70
     1
102
RTVSPropertyOp50
 70
     1
102
RTVSPropertyOp51
 70
     0
102
RTVSPropertyOp52
 70
     0
102
RTVSPropertyOp53
 70
     1
102
RTVSPropertyOp54
 70
     1
102
RTVSPropertyOp55
 70
     1
102
RTVSPropertyOp56
 70
     1
102
RTVSPropertyOp57
 70
     1
102
RTVSPost2010Prop28
280
     0
102
RTVSPost2010PropOp28
 70
     1
102
RTVSPost2010Prop29
280
     1
102
RTVSPost2010PropOp29
 70
     1
102
RTVSPost2010Prop30
280
     1
102
RTVSPost2010PropOp30
 70
     1
102
RTVSPost2010Prop31
280
     0
102
RTVSPost2010PropOp31
 70
     1
102
RTVSPost2010Prop32
280
     0
102
RTVSPost2010PropOp32
 70
     1
102
RTVSPost2010Prop33
280
     0
102
RTVSPost2010PropOp33
 70
     1
102
RTVSPost2010Prop34
280
     0
102
RTVSPost2010PropOp34
 70
     1
102
RTVSPost2010Prop35
280
     0
102
RTVSPost2010PropOp35
 70
     1
102
RTVSPost2010Prop36
280
     0
102
RTVSPost2010PropOp36
 70
     1
102
RTVSPost2010Prop37
 90
       50
102
RTVSPost2010PropOp37
 70
     1
102
RTVSPost2010Prop38
140
0.0
102
RTVSPost2010PropOp38
 70
     1
102
RTVSPost2010Prop39
140
1.0
102
RTVSPost2010PropOp39
 70
     1
102
RTVSPost2010Prop40
 90
        0
102
RTVSPost2010PropOp40
 70
     1
102
RTVSPost2010Prop41ColorIndex
 90
       18
102
RTVSPost2010Prop41ColorRGB
 90
        0
102
RTVSPost2010PropOp41
 70
     1
102
RTVSPost2010Prop42
 90
       50
102
RTVSPost2010PropOp42
 70
     1
102
RTVSPost2010Prop43
 90
        3
102
RTVSPost2010PropOp43
 70
     1
102
RTVSPost2010Prop44ColorIndex
 90
        5
102
RTVSPost2010Prop44ColorRGB
 90
      255
102
RTVSPost2010PropOp44
 70
     1
102
RTVSPost2010Prop45
280
     0
102
RTVSPost2010PropOp45
 70
     1
102
RTVSPost2010Prop46
 90
       50
102
RTVSPost2010PropOp46
 70
     1
102
RTVSPost2010Prop47
 90
       50
102
RTVSPost2010PropOp47
 70
     1
102
RTVSPost2010Prop48
 90
       50
102
RTVSPost2010PropOp48
 70
     1
102
RTVSPost2010Prop49
280
     0
102
RTVSPost2010PropOp49
 70
     1
102
RTVSPost2010Prop50
 90
       50
102
RTVSPost2010PropOp50
 70
     1
102
RTVSPost2010Prop51ColorIndex
 90
      256
102
RTVSPost2010Prop51ColorRGB
 90
-16777216
102
RTVSPost2010PropOp51
 70
     0
102
RTVSPost2010Prop52
140
1.0
102
RTVSPost2010PropOp52
 70
     0
102
RTVSPost2010Prop53
 90
        2
102
RTVSPost2010PropOp53
 70
     1
102
RTVSPost2010Prop54
  1
strokes_ogs.tif
102
RTVSPost2010PropOp54
 70
     1
102
RTVSPost2010Prop55
280
     0
102
RTVSPost2010PropOp55
 70
     1
102
RTVSPost2010Prop56
140
1.0
102
RTVSPost2010PropOp56
 70
     1
102
RTVSPost2010Prop57
140
1.0
102
RTVSPost2010PropOp57
 70
     1
  0
XRECORD
  5
22C
102
{ACAD_REACTORS
330
22B
102
}
330
22B
100
AcDbXrecord
280
     1
102
RTVSPropertyOp0
 70
     0
102
RTVSPropertyOp1
 70
     0
102
RTVSPropertyOp2
 70
     0
102
RTVSPropertyOp3
 70
     0
102
RTVSPropertyOp4
 70
     0
102
RTVSPropertyOp5
 70
     0
102
RTVSPropertyOp6
 70
     0
102
RTVSPropertyOp7
 70
     0
102
RTVSPropertyOp8
 70
     0
102
RTVSPropertyOp9
 70
     0
102
RTVSPropertyOp10
 70
     0
102
RTVSPropertyOp11
 70
     0
102
RTVSPropertyOp12
 70
     0
102
RTVSPropertyOp13
 70
     0
102
RTVSPropertyOp14
 70
     2
102
RTVSPropertyOp15
 70
     0
102
RTVSPropertyOp16
 70
     0
102
RTVSPropertyOp17
 70
     0
102
RTVSPropertyOp18
 70
     0
102
RTVSPropertyOp19
 70
     0
102
RTVSPropertyOp20
 70
     0
102
RTVSPropertyOp21
 70
     0
102
RTVSPropertyOp22
 70
     0
102
RTVSPropertyOp23
 70
     0
102
RTVSPropertyOp24
 70
     0
102
RTVSPropertyOp25
 70
     0
102
RTVSPropertyOp26
 70
     0
102
RTVSPropertyOp27
 70
     0
102
RTVSPropertyOp28
 70
     0
102
RTVSPropertyOp29
 70
     0
102
RTVSPropertyOp30
 70
     0
102
RTVSPropertyOp31
 70
     0
102
RTVSPropertyOp32
 70
     0
102
RTVSPropertyOp33
 70
     0
102
RTVSPropertyOp34
 70
     0
102
RTVSPropertyOp35
 70
     0
102
RTVSPropertyOp36
 70
     0
102
RTVSPropertyOp37
 70
     0
102
RTVSPropertyOp38
 70
     0
102
RTVSPropertyOp39
 70
     0
102
RTVSPropertyOp40
 70
     0
102
RTVSPropertyOp41
 70
     0
102
RTVSPropertyOp42
 70
     0
102
RTVSPropertyOp43
 70
     0
102
RTVSPropertyOp44
 70
     0
102
RTVSPropertyOp45
 70
     0
102
RTVSPropertyOp46
 70
     0
102
RTVSPropertyOp47
 70
     0
102
RTVSPropertyOp48
 70
     0
102
RTVSPropertyOp49
 70
     0
102
RTVSPropertyOp50
 70
     0
102
RTVSPropertyOp51
 70
     0
102
RTVSPropertyOp52
 70
     0
102
RTVSPropertyOp53
 70
     0
102
RTVSPropertyOp54
 70
     0
102
RTVSPropertyOp55
 70
     0
102
RTVSPropertyOp56
 70
     0
102
RTVSPropertyOp57
 70
     0
102
RTVSPost2010Prop28
280
     0
102
RTVSPost2010PropOp28
 70
     0
102
RTVSPost2010Prop29
280
     1
102
RTVSPost2010PropOp29
 70
     0
102
RTVSPost2010Prop30
280
     1
102
RTVSPost2010PropOp30
 70
     0
102
RTVSPost2010Prop31
280
     0
102
RTVSPost2010PropOp31
 70
     0
102
RTVSPost2010Prop32
280
     0
102
RTVSPost2010PropOp32
 70
     0
102
RTVSPost2010Prop33
280
     0
102
RTVSPost2010PropOp33
 70
     0
102
RTVSPost2010Prop34
280
     0
102
RTVSPost2010PropOp34
 70
     0
102
RTVSPost2010Prop35
280
     0
102
RTVSPost2010PropOp35
 70
     0
102
RTVSPost2010Prop36
280
     0
102
RTVSPost2010PropOp36
 70
     0
102
RTVSPost2010Prop37
 90
       50
102
RTVSPost2010PropOp37
 70
     0
102
RTVSPost2010Prop38
140
0.0
102
RTVSPost2010PropOp38
 70
     0
102
RTVSPost2010Prop39
140
1.0
102
RTVSPost2010PropOp39
 70
     0
102
RTVSPost2010Prop40
 90
        0
102
RTVSPost2010PropOp40
 70
     0
102
RTVSPost2010Prop41ColorIndex
 90
       18
102
RTVSPost2010Prop41ColorRGB
 90
        0
102
RTVSPost2010PropOp41
 70
     0
102
RTVSPost2010Prop42
 90
       50
102
RTVSPost2010PropOp42
 70
     0
102
RTVSPost2010Prop43
 90
        3
102
RTVSPost2010PropOp43
 70
     0
102
RTVSPost2010Prop44ColorIndex
 90
        5
102
RTVSPost2010Prop44ColorRGB
 90
      255
102
RTVSPost2010PropOp44
 70
     0
102
RTVSPost2010Prop45
280
     0
102
RTVSPost2010PropOp45
 70
     0
102
RTVSPost2010Prop46
 90
       50
102
RTVSPost2010PropOp46
 70
     0
102
RTVSPost2010Prop47
 90
       50
102
RTVSPost2010PropOp47
 70
     0
102
RTVSPost2010Prop48
 90
       50
102
RTVSPost2010PropOp48
 70
     0
102
RTVSPost2010Prop49
280
     0
102
RTVSPost2010PropOp49
 70
     0
102
RTVSPost2010Prop50
 90
       50
102
RTVSPost2010PropOp50
 70
     0
102
RTVSPost2010Prop51ColorIndex
 90
      256
102
RTVSPost2010Prop51ColorRGB
 90
-16777216
102
RTVSPost2010PropOp51
 70
     0
102
RTVSPost2010Prop52
140
1.0
102
RTVSPost2010PropOp52
 70
     0
102
RTVSPost2010Prop53
 90
        2
102
RTVSPost2010PropOp53
 70
     0
102
RTVSPost2010Prop54
  1
strokes_ogs.tif
102
RTVSPost2010PropOp54
 70
     0
102
RTVSPost2010Prop55
280
     0
102
RTVSPost2010PropOp55
 70
     0
102
RTVSPost2010Prop56
140
1.0
102
RTVSPost2010PropOp56
 70
     0
102
RTVSPost2010Prop57
140
1.0
102
RTVSPost2010PropOp57
 70
     0
  0
XRECORD
  5
226
102
{ACAD_REACTORS
330
225
102
}
330
225
100
AcDbXrecord
280
     1
102
RTVSPropertyOp0
 70
     1
102
RTVSPropertyOp1
 70
     1
102
RTVSPropertyOp2
 70
     1
102
RTVSPropertyOp3
 70
     1
102
RTVSPropertyOp4
 70
     1
102
RTVSPropertyOp5
 70
     1
102
RTVSPropertyOp6
 70
     1
102
RTVSPropertyOp7
 70
     1
102
RTVSPropertyOp8
 70
     1
102
RTVSPropertyOp9
 70
     1
102
RTVSPropertyOp10
 70
     1
102
RTVSPropertyOp11
 70
     1
102
RTVSPropertyOp12
 70
     1
102
RTVSPropertyOp13
 70
     1
102
RTVSPropertyOp14
 70
     1
102
RTVSPropertyOp15
 70
     1
102
RTVSPropertyOp16
 70
     1
102
RTVSPropertyOp17
 70
     1
102
RTVSPropertyOp18
 70
     1
102
RTVSPropertyOp19
 70
     1
102
RTVSPropertyOp20
 70
     1
102
RTVSPropertyOp21
 70
     1
102
RTVSPropertyOp22
 70
     1
102
RTVSPropertyOp23
 70
     1
102
RTVSPropertyOp24
 70
     1
102
RTVSPropertyOp25
 70
     1
102
RTVSPropertyOp26
 70
     1
102
RTVSPropertyOp27
 70
     1
102
RTVSPropertyOp28
 70
     1
102
RTVSPropertyOp29
 70
     1
102
RTVSPropertyOp30
 70
     1
102
RTVSPropertyOp31
 70
     1
102
RTVSPropertyOp32
 70
     1
102
RTVSPropertyOp33
 70
     1
102
RTVSPropertyOp34
 70
     1
102
RTVSPropertyOp35
 70
     1
102
RTVSPropertyOp36
 70
     1
102
RTVSPropertyOp37
 70
     1
102
RTVSPropertyOp38
 70
     1
102
RTVSPropertyOp39
 70
     1
102
RTVSPropertyOp40
 70
     1
102
RTVSPropertyOp41
 70
     1
102
RTVSPropertyOp42
 70
     1
102
RTVSPropertyOp43
 70
     1
102
RTVSPropertyOp44
 70
     1
102
RTVSPropertyOp45
 70
     1
102
RTVSPropertyOp46
 70
     1
102
RTVSPropertyOp47
 70
     1
102
RTVSPropertyOp48
 70
     1
102
RTVSPropertyOp49
 70
     1
102
RTVSPropertyOp50
 70
     1
102
RTVSPropertyOp51
 70
     0
102
RTVSPropertyOp52
 70
     0
102
RTVSPropertyOp53
 70
     1
102
RTVSPropertyOp54
 70
     1
102
RTVSPropertyOp55
 70
     1
102
RTVSPropertyOp56
 70
     1
102
RTVSPropertyOp57
 70
     1
102
RTVSPost2010Prop28
280
     0
102
RTVSPost2010PropOp28
 70
     1
102
RTVSPost2010Prop29
280
     1
102
RTVSPost2010PropOp29
 70
     1
102
RTVSPost2010Prop30
280
     1
102
RTVSPost2010PropOp30
 70
     1
102
RTVSPost2010Prop31
280
     0
102
RTVSPost2010PropOp31
 70
     1
102
RTVSPost2010Prop32
280
     0
102
RTVSPost2010PropOp32
 70
     1
102
RTVSPost2010Prop33
280
     0
102
RTVSPost2010PropOp33
 70
     1
102
RTVSPost2010Prop34
280
     0
102
RTVSPost2010PropOp34
 70
     1
102
RTVSPost2010Prop35
280
     0
102
RTVSPost2010PropOp35
 70
     1
102
RTVSPost2010Prop36
280
     0
102
RTVSPost2010PropOp36
 70
     1
102
RTVSPost2010Prop37
 90
       50
102
RTVSPost2010PropOp37
 70
     1
102
RTVSPost2010Prop38
140
0.0
102
RTVSPost2010PropOp38
 70
     1
102
RTVSPost2010Prop39
140
1.0
102
RTVSPost2010PropOp39
 70
     1
102
RTVSPost2010Prop40
 90
        0
102
RTVSPost2010PropOp40
 70
     1
102
RTVSPost2010Prop41ColorIndex
 90
       18
102
RTVSPost2010Prop41ColorRGB
 90
        0
102
RTVSPost2010PropOp41
 70
     1
102
RTVSPost2010Prop42
 90
       50
102
RTVSPost2010PropOp42
 70
     1
102
RTVSPost2010Prop43
 90
        3
102
RTVSPost2010PropOp43
 70
     1
102
RTVSPost2010Prop44ColorIndex
 90
        5
102
RTVSPost2010Prop44ColorRGB
 90
      255
102
RTVSPost2010PropOp44
 70
     1
102
RTVSPost2010Prop45
280
     0
102
RTVSPost2010PropOp45
 70
     1
102
RTVSPost2010Prop46
 90
       50
102
RTVSPost2010PropOp46
 70
     1
102
RTVSPost2010Prop47
 90
       50
102
RTVSPost2010PropOp47
 70
     1
102
RTVSPost2010Prop48
 90
       50
102
RTVSPost2010PropOp48
 70
     1
102
RTVSPost2010Prop49
280
     0
102
RTVSPost2010PropOp49
 70
     1
102
RTVSPost2010Prop50
 90
       50
102
RTVSPost2010PropOp50
 70
     1
102
RTVSPost2010Prop51ColorIndex
 90
      256
102
RTVSPost2010Prop51ColorRGB
 90
-16777216
102
RTVSPost2010PropOp51
 70
     0
102
RTVSPost2010Prop52
140
1.0
102
RTVSPost2010PropOp52
 70
     0
102
RTVSPost2010Prop53
 90
        2
102
RTVSPost2010PropOp53
 70
     1
102
RTVSPost2010Prop54
  1
strokes_ogs.tif
102
RTVSPost2010PropOp54
 70
     1
102
RTVSPost2010Prop55
280
     0
102
RTVSPost2010PropOp55
 70
     1
102
RTVSPost2010Prop56
140
1.0
102
RTVSPost2010PropOp56
 70
     1
102
RTVSPost2010Prop57
140
1.0
102
RTVSPost2010PropOp57
 70
     1
  0
XRECORD
  5
22E
102
{ACAD_REACTORS
330
22D
102
}
330
22D
100
AcDbXrecord
280
     1
102
RTVSPropertyOp0
 70
     0
102
RTVSPropertyOp1
 70
     0
102
RTVSPropertyOp2
 70
     0
102
RTVSPropertyOp3
 70
     0
102
RTVSPropertyOp4
 70
     0
102
RTVSPropertyOp5
 70
     0
102
RTVSPropertyOp6
 70
     0
102
RTVSPropertyOp7
 70
     0
102
RTVSPropertyOp8
 70
     0
102
RTVSPropertyOp9
 70
     0
102
RTVSPropertyOp10
 70
     0
102
RTVSPropertyOp11
 70
     0
102
RTVSPropertyOp12
 70
     0
102
RTVSPropertyOp13
 70
     0
102
RTVSPropertyOp14
 70
     2
102
RTVSPropertyOp15
 70
     0
102
RTVSPropertyOp16
 70
     0
102
RTVSPropertyOp17
 70
     0
102
RTVSPropertyOp18
 70
     0
102
RTVSPropertyOp19
 70
     0
102
RTVSPropertyOp20
 70
     0
102
RTVSPropertyOp21
 70
     0
102
RTVSPropertyOp22
 70
     0
102
RTVSPropertyOp23
 70
     0
102
RTVSPropertyOp24
 70
     0
102
RTVSPropertyOp25
 70
     0
102
RTVSPropertyOp26
 70
     0
102
RTVSPropertyOp27
 70
     0
102
RTVSPropertyOp28
 70
     0
102
RTVSPropertyOp29
 70
     0
102
RTVSPropertyOp30
 70
     0
102
RTVSPropertyOp31
 70
     0
102
RTVSPropertyOp32
 70
     0
102
RTVSPropertyOp33
 70
     0
102
RTVSPropertyOp34
 70
     0
102
RTVSPropertyOp35
 70
     0
102
RTVSPropertyOp36
 70
     0
102
RTVSPropertyOp37
 70
     0
102
RTVSPropertyOp38
 70
     0
102
RTVSPropertyOp39
 70
     0
102
RTVSPropertyOp40
 70
     0
102
RTVSPropertyOp41
 70
     0
102
RTVSPropertyOp42
 70
     0
102
RTVSPropertyOp43
 70
     0
102
RTVSPropertyOp44
 70
     0
102
RTVSPropertyOp45
 70
     0
102
RTVSPropertyOp46
 70
     0
102
RTVSPropertyOp47
 70
     0
102
RTVSPropertyOp48
 70
     0
102
RTVSPropertyOp49
 70
     0
102
RTVSPropertyOp50
 70
     0
102
RTVSPropertyOp51
 70
     0
102
RTVSPropertyOp52
 70
     0
102
RTVSPropertyOp53
 70
     0
102
RTVSPropertyOp54
 70
     0
102
RTVSPropertyOp55
 70
     0
102
RTVSPropertyOp56
 70
     0
102
RTVSPropertyOp57
 70
     0
102
RTVSPost2010Prop28
280
     0
102
RTVSPost2010PropOp28
 70
     0
102
RTVSPost2010Prop29
280
     1
102
RTVSPost2010PropOp29
 70
     0
102
RTVSPost2010Prop30
280
     1
102
RTVSPost2010PropOp30
 70
     0
102
RTVSPost2010Prop31
280
     0
102
RTVSPost2010PropOp31
 70
     0
102
RTVSPost2010Prop32
280
     0
102
RTVSPost2010PropOp32
 70
     0
102
RTVSPost2010Prop33
280
     0
102
RTVSPost2010PropOp33
 70
     0
102
RTVSPost2010Prop34
280
     0
102
RTVSPost2010PropOp34
 70
     0
102
RTVSPost2010Prop35
280
     0
102
RTVSPost2010PropOp35
 70
     0
102
RTVSPost2010Prop36
280
     0
102
RTVSPost2010PropOp36
 70
     0
102
RTVSPost2010Prop37
 90
       50
102
RTVSPost2010PropOp37
 70
     0
102
RTVSPost2010Prop38
140
0.0
102
RTVSPost2010PropOp38
 70
     0
102
RTVSPost2010Prop39
140
1.0
102
RTVSPost2010PropOp39
 70
     0
102
RTVSPost2010Prop40
 90
        0
102
RTVSPost2010PropOp40
 70
     0
102
RTVSPost2010Prop41ColorIndex
 90
       18
102
RTVSPost2010Prop41ColorRGB
 90
        0
102
RTVSPost2010PropOp41
 70
     0
102
RTVSPost2010Prop42
 90
       50
102
RTVSPost2010PropOp42
 70
     0
102
RTVSPost2010Prop43
 90
        3
102
RTVSPost2010PropOp43
 70
     0
102
RTVSPost2010Prop44ColorIndex
 90
        5
102
RTVSPost2010Prop44ColorRGB
 90
      255
102
RTVSPost2010PropOp44
 70
     0
102
RTVSPost2010Prop45
280
     0
102
RTVSPost2010PropOp45
 70
     0
102
RTVSPost2010Prop46
 90
       50
102
RTVSPost2010PropOp46
 70
     0
102
RTVSPost2010Prop47
 90
       50
102
RTVSPost2010PropOp47
 70
     0
102
RTVSPost2010Prop48
 90
       50
102
RTVSPost2010PropOp48
 70
     0
102
RTVSPost2010Prop49
280
     0
102
RTVSPost2010PropOp49
 70
     0
102
RTVSPost2010Prop50
 90
       50
102
RTVSPost2010PropOp50
 70
     0
102
RTVSPost2010Prop51ColorIndex
 90
      256
102
RTVSPost2010Prop51ColorRGB
 90
-16777216
102
RTVSPost2010PropOp51
 70
     0
102
RTVSPost2010Prop52
140
1.0
102
RTVSPost2010PropOp52
 70
     0
102
RTVSPost2010Prop53
 90
        2
102
RTVSPost2010PropOp53
 70
     0
102
RTVSPost2010Prop54
  1
strokes_ogs.tif
102
RTVSPost2010PropOp54
 70
     0
102
RTVSPost2010Prop55
280
     0
102
RTVSPost2010PropOp55
 70
     0
102
RTVSPost2010Prop56
140
1.0
102
RTVSPost2010PropOp56
 70
     0
102
RTVSPost2010Prop57
140
1.0
102
RTVSPost2010PropOp57
 70
     0
  0
XRECORD
  5
21C
102
{ACAD_REACTORS
330
21B
102
}
330
21B
100
AcDbXrecord
280
     1
102
RTVSPropertyOp0
 70
     1
102
RTVSPropertyOp1
 70
     1
102
RTVSPropertyOp2
 70
     1
102
RTVSPropertyOp3
 70
     1
102
RTVSPropertyOp4
 70
     1
102
RTVSPropertyOp5
 70
     1
102
RTVSPropertyOp6
 70
     1
102
RTVSPropertyOp7
 70
     1
102
RTVSPropertyOp8
 70
     1
102
RTVSPropertyOp9
 70
     1
102
RTVSPropertyOp10
 70
     1
102
RTVSPropertyOp11
 70
     1
102
RTVSPropertyOp12
 70
     1
102
RTVSPropertyOp13
 70
     1
102
RTVSPropertyOp14
 70
     1
102
RTVSPropertyOp15
 70
     1
102
RTVSPropertyOp16
 70
     1
102
RTVSPropertyOp17
 70
     1
102
RTVSPropertyOp18
 70
     1
102
RTVSPropertyOp19
 70
     1
102
RTVSPropertyOp20
 70
     1
102
RTVSPropertyOp21
 70
     1
102
RTVSPropertyOp22
 70
     1
102
RTVSPropertyOp23
 70
     1
102
RTVSPropertyOp24
 70
     1
102
RTVSPropertyOp25
 70
     1
102
RTVSPropertyOp26
 70
     1
102
RTVSPropertyOp27
 70
     1
102
RTVSPropertyOp28
 70
     1
102
RTVSPropertyOp29
 70
     1
102
RTVSPropertyOp30
 70
     1
102
RTVSPropertyOp31
 70
     1
102
RTVSPropertyOp32
 70
     1
102
RTVSPropertyOp33
 70
     1
102
RTVSPropertyOp34
 70
     1
102
RTVSPropertyOp35
 70
     1
102
RTVSPropertyOp36
 70
     1
102
RTVSPropertyOp37
 70
     1
102
RTVSPropertyOp38
 70
     1
102
RTVSPropertyOp39
 70
     1
102
RTVSPropertyOp40
 70
     1
102
RTVSPropertyOp41
 70
     1
102
RTVSPropertyOp42
 70
     1
102
RTVSPropertyOp43
 70
     1
102
RTVSPropertyOp44
 70
     1
102
RTVSPropertyOp45
 70
     1
102
RTVSPropertyOp46
 70
     1
102
RTVSPropertyOp47
 70
     1
102
RTVSPropertyOp48
 70
     1
102
RTVSPropertyOp49
 70
     1
102
RTVSPropertyOp50
 70
     1
102
RTVSPropertyOp51
 70
     0
102
RTVSPropertyOp52
 70
     0
102
RTVSPropertyOp53
 70
     1
102
RTVSPropertyOp54
 70
     1
102
RTVSPropertyOp55
 70
     1
102
RTVSPropertyOp56
 70
     1
102
RTVSPropertyOp57
 70
     1
102
RTVSPost2010Prop28
280
     0
102
RTVSPost2010PropOp28
 70
     1
102
RTVSPost2010Prop29
280
     1
102
RTVSPost2010PropOp29
 70
     1
102
RTVSPost2010Prop30
280
     1
102
RTVSPost2010PropOp30
 70
     1
102
RTVSPost2010Prop31
280
     0
102
RTVSPost2010PropOp31
 70
     1
102
RTVSPost2010Prop32
280
     0
102
RTVSPost2010PropOp32
 70
     1
102
RTVSPost2010Prop33
280
     0
102
RTVSPost2010PropOp33
 70
     1
102
RTVSPost2010Prop34
280
     0
102
RTVSPost2010PropOp34
 70
     1
102
RTVSPost2010Prop35
280
     0
102
RTVSPost2010PropOp35
 70
     1
102
RTVSPost2010Prop36
280
     0
102
RTVSPost2010PropOp36
 70
     1
102
RTVSPost2010Prop37
 90
       50
102
RTVSPost2010PropOp37
 70
     1
102
RTVSPost2010Prop38
140
0.0
102
RTVSPost2010PropOp38
 70
     1
102
RTVSPost2010Prop39
140
1.0
102
RTVSPost2010PropOp39
 70
     1
102
RTVSPost2010Prop40
 90
        0
102
RTVSPost2010PropOp40
 70
     1
102
RTVSPost2010Prop41ColorIndex
 90
       18
102
RTVSPost2010Prop41ColorRGB
 90
        0
102
RTVSPost2010PropOp41
 70
     1
102
RTVSPost2010Prop42
 90
       50
102
RTVSPost2010PropOp42
 70
     1
102
RTVSPost2010Prop43
 90
        3
102
RTVSPost2010PropOp43
 70
     1
102
RTVSPost2010Prop44ColorIndex
 90
        5
102
RTVSPost2010Prop44ColorRGB
 90
      255
102
RTVSPost2010PropOp44
 70
     1
102
RTVSPost2010Prop45
280
     0
102
RTVSPost2010PropOp45
 70
     1
102
RTVSPost2010Prop46
 90
       50
102
RTVSPost2010PropOp46
 70
     1
102
RTVSPost2010Prop47
 90
       50
102
RTVSPost2010PropOp47
 70
     1
102
RTVSPost2010Prop48
 90
       50
102
RTVSPost2010PropOp48
 70
     1
102
RTVSPost2010Prop49
280
     0
102
RTVSPost2010PropOp49
 70
     1
102
RTVSPost2010Prop50
 90
       50
102
RTVSPost2010PropOp50
 70
     1
102
RTVSPost2010Prop51ColorIndex
 90
      256
102
RTVSPost2010Prop51ColorRGB
 90
-16777216
102
RTVSPost2010PropOp51
 70
     0
102
RTVSPost2010Prop52
140
1.0
102
RTVSPost2010PropOp52
 70
     0
102
RTVSPost2010Prop53
 90
        2
102
RTVSPost2010PropOp53
 70
     1
102
RTVSPost2010Prop54
  1
strokes_ogs.tif
102
RTVSPost2010PropOp54
 70
     1
102
RTVSPost2010Prop55
280
     0
102
RTVSPost2010PropOp55
 70
     1
102
RTVSPost2010Prop56
140
1.0
102
RTVSPost2010PropOp56
 70
     1
102
RTVSPost2010Prop57
140
1.0
102
RTVSPost2010PropOp57
 70
     1
  0
XRECORD
  5
23A
102
{ACAD_REACTORS
330
239
102
}
330
239
100
AcDbXrecord
280
     1
102
RTVSPropertyOp0
 70
     1
102
RTVSPropertyOp1
 70
     1
102
RTVSPropertyOp2
 70
     1
102
RTVSPropertyOp3
 70
     1
102
RTVSPropertyOp4
 70
     1
102
RTVSPropertyOp5
 70
     1
102
RTVSPropertyOp6
 70
     1
102
RTVSPropertyOp7
 70
     1
102
RTVSPropertyOp8
 70
     1
102
RTVSPropertyOp9
 70
     1
102
RTVSPropertyOp10
 70
     1
102
RTVSPropertyOp11
 70
     1
102
RTVSPropertyOp12
 70
     1
102
RTVSPropertyOp13
 70
     1
102
RTVSPropertyOp14
 70
     1
102
RTVSPropertyOp15
 70
     1
102
RTVSPropertyOp16
 70
     1
102
RTVSPropertyOp17
 70
     1
102
RTVSPropertyOp18
 70
     1
102
RTVSPropertyOp19
 70
     1
102
RTVSPropertyOp20
 70
     1
102
RTVSPropertyOp21
 70
     1
102
RTVSPropertyOp22
 70
     1
102
RTVSPropertyOp23
 70
     1
102
RTVSPropertyOp24
 70
     1
102
RTVSPropertyOp25
 70
     1
102
RTVSPropertyOp26
 70
     1
102
RTVSPropertyOp27
 70
     1
102
RTVSPropertyOp28
 70
     1
102
RTVSPropertyOp29
 70
     1
102
RTVSPropertyOp30
 70
     1
102
RTVSPropertyOp31
 70
     1
102
RTVSPropertyOp32
 70
     1
102
RTVSPropertyOp33
 70
     1
102
RTVSPropertyOp34
 70
     1
102
RTVSPropertyOp35
 70
     1
102
RTVSPropertyOp36
 70
     1
102
RTVSPropertyOp37
 70
     1
102
RTVSPropertyOp38
 70
     1
102
RTVSPropertyOp39
 70
     1
102
RTVSPropertyOp40
 70
     1
102
RTVSPropertyOp41
 70
     1
102
RTVSPropertyOp42
 70
     1
102
RTVSPropertyOp43
 70
     1
102
RTVSPropertyOp44
 70
     1
102
RTVSPropertyOp45
 70
     1
102
RTVSPropertyOp46
 70
     1
102
RTVSPropertyOp47
 70
     1
102
RTVSPropertyOp48
 70
     1
102
RTVSPropertyOp49
 70
     1
102
RTVSPropertyOp50
 70
     1
102
RTVSPropertyOp51
 70
     0
102
RTVSPropertyOp52
 70
     0
102
RTVSPropertyOp53
 70
     1
102
RTVSPropertyOp54
 70
     1
102
RTVSPropertyOp55
 70
     1
102
RTVSPropertyOp56
 70
     1
102
RTVSPropertyOp57
 70
     1
102
RTVSPost2010Prop28
280
     0
102
RTVSPost2010PropOp28
 70
     1
102
RTVSPost2010Prop29
280
     1
102
RTVSPost2010PropOp29
 70
     1
102
RTVSPost2010Prop30
280
     1
102
RTVSPost2010PropOp30
 70
     1
102
RTVSPost2010Prop31
280
     0
102
RTVSPost2010PropOp31
 70
     1
102
RTVSPost2010Prop32
280
     0
102
RTVSPost2010PropOp32
 70
     1
102
RTVSPost2010Prop33
280
     0
102
RTVSPost2010PropOp33
 70
     1
102
RTVSPost2010Prop34
280
     0
102
RTVSPost2010PropOp34
 70
     1
102
RTVSPost2010Prop35
280
     0
102
RTVSPost2010PropOp35
 70
     1
102
RTVSPost2010Prop36
280
     0
102
RTVSPost2010PropOp36
 70
     1
102
RTVSPost2010Prop37
 90
       50
102
RTVSPost2010PropOp37
 70
     1
102
RTVSPost2010Prop38
140
0.0
102
RTVSPost2010PropOp38
 70
     1
102
RTVSPost2010Prop39
140
1.0
102
RTVSPost2010PropOp39
 70
     1
102
RTVSPost2010Prop40
 90
        0
102
RTVSPost2010PropOp40
 70
     1
102
RTVSPost2010Prop41ColorIndex
 90
       18
102
RTVSPost2010Prop41ColorRGB
 90
        0
102
RTVSPost2010PropOp41
 70
     1
102
RTVSPost2010Prop42
 90
       50
102
RTVSPost2010PropOp42
 70
     1
102
RTVSPost2010Prop43
 90
        3
102
RTVSPost2010PropOp43
 70
     1
102
RTVSPost2010Prop44ColorIndex
 90
        5
102
RTVSPost2010Prop44ColorRGB
 90
      255
102
RTVSPost2010PropOp44
 70
     1
102
RTVSPost2010Prop45
280
     0
102
RTVSPost2010PropOp45
 70
     1
102
RTVSPost2010Prop46
 90
       50
102
RTVSPost2010PropOp46
 70
     1
102
RTVSPost2010Prop47
 90
       50
102
RTVSPost2010PropOp47
 70
     1
102
RTVSPost2010Prop48
 90
       50
102
RTVSPost2010PropOp48
 70
     1
102
RTVSPost2010Prop49
280
     0
102
RTVSPost2010PropOp49
 70
     1
102
RTVSPost2010Prop50
 90
       50
102
RTVSPost2010PropOp50
 70
     1
102
RTVSPost2010Prop51ColorIndex
 90
      256
102
RTVSPost2010Prop51ColorRGB
 90
-16777216
102
RTVSPost2010PropOp51
 70
     0
102
RTVSPost2010Prop52
140
1.0
102
RTVSPost2010PropOp52
 70
     0
102
RTVSPost2010Prop53
 90
        2
102
RTVSPost2010PropOp53
 70
     1
102
RTVSPost2010Prop54
  1
strokes_ogs.tif
102
RTVSPost2010PropOp54
 70
     1
102
RTVSPost2010Prop55
280
     0
102
RTVSPost2010PropOp55
 70
     1
102
RTVSPost2010Prop56
140
1.0
102
RTVSPost2010PropOp56
 70
     1
102
RTVSPost2010Prop57
140
1.0
102
RTVSPost2010PropOp57
 70
     1
  0
XRECORD
  5
238
102
{ACAD_REACTORS
330
237
102
}
330
237
100
AcDbXrecord
280
     1
102
RTVSPropertyOp0
 70
     1
102
RTVSPropertyOp1
 70
     1
102
RTVSPropertyOp2
 70
     1
102
RTVSPropertyOp3
 70
     1
102
RTVSPropertyOp4
 70
     1
102
RTVSPropertyOp5
 70
     1
102
RTVSPropertyOp6
 70
     1
102
RTVSPropertyOp7
 70
     1
102
RTVSPropertyOp8
 70
     1
102
RTVSPropertyOp9
 70
     1
102
RTVSPropertyOp10
 70
     1
102
RTVSPropertyOp11
 70
     1
102
RTVSPropertyOp12
 70
     1
102
RTVSPropertyOp13
 70
     1
102
RTVSPropertyOp14
 70
     1
102
RTVSPropertyOp15
 70
     1
102
RTVSPropertyOp16
 70
     1
102
RTVSPropertyOp17
 70
     1
102
RTVSPropertyOp18
 70
     1
102
RTVSPropertyOp19
 70
     1
102
RTVSPropertyOp20
 70
     1
102
RTVSPropertyOp21
 70
     1
102
RTVSPropertyOp22
 70
     1
102
RTVSPropertyOp23
 70
     1
102
RTVSPropertyOp24
 70
     1
102
RTVSPropertyOp25
 70
     1
102
RTVSPropertyOp26
 70
     1
102
RTVSPropertyOp27
 70
     1
102
RTVSPropertyOp28
 70
     1
102
RTVSPropertyOp29
 70
     1
102
RTVSPropertyOp30
 70
     1
102
RTVSPropertyOp31
 70
     1
102
RTVSPropertyOp32
 70
     1
102
RTVSPropertyOp33
 70
     1
102
RTVSPropertyOp34
 70
     1
102
RTVSPropertyOp35
 70
     1
102
RTVSPropertyOp36
 70
     1
102
RTVSPropertyOp37
 70
     1
102
RTVSPropertyOp38
 70
     1
102
RTVSPropertyOp39
 70
     1
102
RTVSPropertyOp40
 70
     1
102
RTVSPropertyOp41
 70
     1
102
RTVSPropertyOp42
 70
     1
102
RTVSPropertyOp43
 70
     1
102
RTVSPropertyOp44
 70
     1
102
RTVSPropertyOp45
 70
     1
102
RTVSPropertyOp46
 70
     1
102
RTVSPropertyOp47
 70
     1
102
RTVSPropertyOp48
 70
     1
102
RTVSPropertyOp49
 70
     1
102
RTVSPropertyOp50
 70
     1
102
RTVSPropertyOp51
 70
     0
102
RTVSPropertyOp52
 70
     0
102
RTVSPropertyOp53
 70
     1
102
RTVSPropertyOp54
 70
     1
102
RTVSPropertyOp55
 70
     1
102
RTVSPropertyOp56
 70
     1
102
RTVSPropertyOp57
 70
     1
102
RTVSPost2010Prop28
280
     0
102
RTVSPost2010PropOp28
 70
     1
102
RTVSPost2010Prop29
280
     1
102
RTVSPost2010PropOp29
 70
     1
102
RTVSPost2010Prop30
280
     1
102
RTVSPost2010PropOp30
 70
     1
102
RTVSPost2010Prop31
280
     0
102
RTVSPost2010PropOp31
 70
     1
102
RTVSPost2010Prop32
280
     0
102
RTVSPost2010PropOp32
 70
     1
102
RTVSPost2010Prop33
280
     0
102
RTVSPost2010PropOp33
 70
     1
102
RTVSPost2010Prop34
280
     0
102
RTVSPost2010PropOp34
 70
     1
102
RTVSPost2010Prop35
280
     0
102
RTVSPost2010PropOp35
 70
     1
102
RTVSPost2010Prop36
280
     0
102
RTVSPost2010PropOp36
 70
     1
102
RTVSPost2010Prop37
 90
       50
102
RTVSPost2010PropOp37
 70
     1
102
RTVSPost2010Prop38
140
0.0
102
RTVSPost2010PropOp38
 70
     1
102
RTVSPost2010Prop39
140
1.0
102
RTVSPost2010PropOp39
 70
     1
102
RTVSPost2010Prop40
 90
        0
102
RTVSPost2010PropOp40
 70
     1
102
RTVSPost2010Prop41ColorIndex
 90
       18
102
RTVSPost2010Prop41ColorRGB
 90
        0
102
RTVSPost2010PropOp41
 70
     1
102
RTVSPost2010Prop42
 90
       50
102
RTVSPost2010PropOp42
 70
     1
102
RTVSPost2010Prop43
 90
        3
102
RTVSPost2010PropOp43
 70
     1
102
RTVSPost2010Prop44ColorIndex
 90
        5
102
RTVSPost2010Prop44ColorRGB
 90
      255
102
RTVSPost2010PropOp44
 70
     1
102
RTVSPost2010Prop45
280
     0
102
RTVSPost2010PropOp45
 70
     1
102
RTVSPost2010Prop46
 90
       50
102
RTVSPost2010PropOp46
 70
     1
102
RTVSPost2010Prop47
 90
       50
102
RTVSPost2010PropOp47
 70
     1
102
RTVSPost2010Prop48
 90
       50
102
RTVSPost2010PropOp48
 70
     1
102
RTVSPost2010Prop49
280
     0
102
RTVSPost2010PropOp49
 70
     1
102
RTVSPost2010Prop50
 90
       50
102
RTVSPost2010PropOp50
 70
     1
102
RTVSPost2010Prop51ColorIndex
 90
      256
102
RTVSPost2010Prop51ColorRGB
 90
-16777216
102
RTVSPost2010PropOp51
 70
     0
102
RTVSPost2010Prop52
140
1.0
102
RTVSPost2010PropOp52
 70
     0
102
RTVSPost2010Prop53
 90
        2
102
RTVSPost2010PropOp53
 70
     1
102
RTVSPost2010Prop54
  1
strokes_ogs.tif
102
RTVSPost2010PropOp54
 70
     1
102
RTVSPost2010Prop55
280
     0
102
RTVSPost2010PropOp55
 70
     1
102
RTVSPost2010Prop56
140
1.0
102
RTVSPost2010PropOp56
 70
     1
102
RTVSPost2010Prop57
140
1.0
102
RTVSPost2010PropOp57
 70
     1
  0
XRECORD
  5
232
102
{ACAD_REACTORS
330
231
102
}
330
231
100
AcDbXrecord
280
     1
102
RTVSPropertyOp0
 70
     1
102
RTVSPropertyOp1
 70
     1
102
RTVSPropertyOp2
 70
     1
102
RTVSPropertyOp3
 70
     1
102
RTVSPropertyOp4
 70
     1
102
RTVSPropertyOp5
 70
     1
102
RTVSPropertyOp6
 70
     1
102
RTVSPropertyOp7
 70
     1
102
RTVSPropertyOp8
 70
     1
102
RTVSPropertyOp9
 70
     1
102
RTVSPropertyOp10
 70
     1
102
RTVSPropertyOp11
 70
     1
102
RTVSPropertyOp12
 70
     1
102
RTVSPropertyOp13
 70
     1
102
RTVSPropertyOp14
 70
     1
102
RTVSPropertyOp15
 70
     1
102
RTVSPropertyOp16
 70
     1
102
RTVSPropertyOp17
 70
     1
102
RTVSPropertyOp18
 70
     1
102
RTVSPropertyOp19
 70
     1
102
RTVSPropertyOp20
 70
     1
102
RTVSPropertyOp21
 70
     1
102
RTVSPropertyOp22
 70
     1
102
RTVSPropertyOp23
 70
     1
102
RTVSPropertyOp24
 70
     1
102
RTVSPropertyOp25
 70
     1
102
RTVSPropertyOp26
 70
     1
102
RTVSPropertyOp27
 70
     1
102
RTVSPropertyOp28
 70
     1
102
RTVSPropertyOp29
 70
     1
102
RTVSPropertyOp30
 70
     1
102
RTVSPropertyOp31
 70
     1
102
RTVSPropertyOp32
 70
     1
102
RTVSPropertyOp33
 70
     1
102
RTVSPropertyOp34
 70
     1
102
RTVSPropertyOp35
 70
     1
102
RTVSPropertyOp36
 70
     1
102
RTVSPropertyOp37
 70
     1
102
RTVSPropertyOp38
 70
     1
102
RTVSPropertyOp39
 70
     1
102
RTVSPropertyOp40
 70
     1
102
RTVSPropertyOp41
 70
     1
102
RTVSPropertyOp42
 70
     1
102
RTVSPropertyOp43
 70
     1
102
RTVSPropertyOp44
 70
     1
102
RTVSPropertyOp45
 70
     1
102
RTVSPropertyOp46
 70
     1
102
RTVSPropertyOp47
 70
     1
102
RTVSPropertyOp48
 70
     1
102
RTVSPropertyOp49
 70
     1
102
RTVSPropertyOp50
 70
     1
102
RTVSPropertyOp51
 70
     0
102
RTVSPropertyOp52
 70
     0
102
RTVSPropertyOp53
 70
     1
102
RTVSPropertyOp54
 70
     1
102
RTVSPropertyOp55
 70
     1
102
RTVSPropertyOp56
 70
     1
102
RTVSPropertyOp57
 70
     1
102
RTVSPost2010Prop28
280
     0
102
RTVSPost2010PropOp28
 70
     1
102
RTVSPost2010Prop29
280
     1
102
RTVSPost2010PropOp29
 70
     1
102
RTVSPost2010Prop30
280
     1
102
RTVSPost2010PropOp30
 70
     1
102
RTVSPost2010Prop31
280
     0
102
RTVSPost2010PropOp31
 70
     1
102
RTVSPost2010Prop32
280
     0
102
RTVSPost2010PropOp32
 70
     1
102
RTVSPost2010Prop33
280
     0
102
RTVSPost2010PropOp33
 70
     1
102
RTVSPost2010Prop34
280
     0
102
RTVSPost2010PropOp34
 70
     1
102
RTVSPost2010Prop35
280
     0
102
RTVSPost2010PropOp35
 70
     1
102
RTVSPost2010Prop36
280
     0
102
RTVSPost2010PropOp36
 70
     1
102
RTVSPost2010Prop37
 90
       50
102
RTVSPost2010PropOp37
 70
     1
102
RTVSPost2010Prop38
140
0.0
102
RTVSPost2010PropOp38
 70
     1
102
RTVSPost2010Prop39
140
1.0
102
RTVSPost2010PropOp39
 70
     1
102
RTVSPost2010Prop40
 90
        0
102
RTVSPost2010PropOp40
 70
     1
102
RTVSPost2010Prop41ColorIndex
 90
       18
102
RTVSPost2010Prop41ColorRGB
 90
        0
102
RTVSPost2010PropOp41
 70
     1
102
RTVSPost2010Prop42
 90
       50
102
RTVSPost2010PropOp42
 70
     1
102
RTVSPost2010Prop43
 90
        3
102
RTVSPost2010PropOp43
 70
     1
102
RTVSPost2010Prop44ColorIndex
 90
        5
102
RTVSPost2010Prop44ColorRGB
 90
      255
102
RTVSPost2010PropOp44
 70
     1
102
RTVSPost2010Prop45
280
     0
102
RTVSPost2010PropOp45
 70
     1
102
RTVSPost2010Prop46
 90
       50
102
RTVSPost2010PropOp46
 70
     1
102
RTVSPost2010Prop47
 90
       50
102
RTVSPost2010PropOp47
 70
     1
102
RTVSPost2010Prop48
 90
       50
102
RTVSPost2010PropOp48
 70
     1
102
RTVSPost2010Prop49
280
     0
102
RTVSPost2010PropOp49
 70
     1
102
RTVSPost2010Prop50
 90
       50
102
RTVSPost2010PropOp50
 70
     1
102
RTVSPost2010Prop51ColorIndex
 90
      256
102
RTVSPost2010Prop51ColorRGB
 90
-16777216
102
RTVSPost2010PropOp51
 70
     0
102
RTVSPost2010Prop52
140
1.0
102
RTVSPost2010PropOp52
 70
     0
102
RTVSPost2010Prop53
 90
        2
102
RTVSPost2010PropOp53
 70
     1
102
RTVSPost2010Prop54
  1
strokes_ogs.tif
102
RTVSPost2010PropOp54
 70
     1
102
RTVSPost2010Prop55
280
     0
102
RTVSPost2010PropOp55
 70
     1
102
RTVSPost2010Prop56
140
1.0
102
RTVSPost2010PropOp56
 70
     1
102
RTVSPost2010Prop57
140
1.0
102
RTVSPost2010PropOp57
 70
     1
  0
XRECORD
  5
234
102
{ACAD_REACTORS
330
233
102
}
330
233
100
AcDbXrecord
280
     1
102
RTVSPropertyOp0
 70
     1
102
RTVSPropertyOp1
 70
     1
102
RTVSPropertyOp2
 70
     1
102
RTVSPropertyOp3
 70
     1
102
RTVSPropertyOp4
 70
     1
102
RTVSPropertyOp5
 70
     1
102
RTVSPropertyOp6
 70
     1
102
RTVSPropertyOp7
 70
     1
102
RTVSPropertyOp8
 70
     1
102
RTVSPropertyOp9
 70
     1
102
RTVSPropertyOp10
 70
     1
102
RTVSPropertyOp11
 70
     1
102
RTVSPropertyOp12
 70
     1
102
RTVSPropertyOp13
 70
     1
102
RTVSPropertyOp14
 70
     1
102
RTVSPropertyOp15
 70
     1
102
RTVSPropertyOp16
 70
     1
102
RTVSPropertyOp17
 70
     1
102
RTVSPropertyOp18
 70
     1
102
RTVSPropertyOp19
 70
     1
102
RTVSPropertyOp20
 70
     1
102
RTVSPropertyOp21
 70
     1
102
RTVSPropertyOp22
 70
     1
102
RTVSPropertyOp23
 70
     1
102
RTVSPropertyOp24
 70
     1
102
RTVSPropertyOp25
 70
     1
102
RTVSPropertyOp26
 70
     1
102
RTVSPropertyOp27
 70
     1
102
RTVSPropertyOp28
 70
     1
102
RTVSPropertyOp29
 70
     1
102
RTVSPropertyOp30
 70
     1
102
RTVSPropertyOp31
 70
     1
102
RTVSPropertyOp32
 70
     1
102
RTVSPropertyOp33
 70
     1
102
RTVSPropertyOp34
 70
     1
102
RTVSPropertyOp35
 70
     1
102
RTVSPropertyOp36
 70
     1
102
RTVSPropertyOp37
 70
     1
102
RTVSPropertyOp38
 70
     1
102
RTVSPropertyOp39
 70
     1
102
RTVSPropertyOp40
 70
     1
102
RTVSPropertyOp41
 70
     1
102
RTVSPropertyOp42
 70
     1
102
RTVSPropertyOp43
 70
     1
102
RTVSPropertyOp44
 70
     1
102
RTVSPropertyOp45
 70
     1
102
RTVSPropertyOp46
 70
     1
102
RTVSPropertyOp47
 70
     1
102
RTVSPropertyOp48
 70
     1
102
RTVSPropertyOp49
 70
     1
102
RTVSPropertyOp50
 70
     1
102
RTVSPropertyOp51
 70
     0
102
RTVSPropertyOp52
 70
     0
102
RTVSPropertyOp53
 70
     1
102
RTVSPropertyOp54
 70
     1
102
RTVSPropertyOp55
 70
     1
102
RTVSPropertyOp56
 70
     1
102
RTVSPropertyOp57
 70
     1
102
RTVSPost2010Prop28
280
     0
102
RTVSPost2010PropOp28
 70
     1
102
RTVSPost2010Prop29
280
     1
102
RTVSPost2010PropOp29
 70
     1
102
RTVSPost2010Prop30
280
     1
102
RTVSPost2010PropOp30
 70
     1
102
RTVSPost2010Prop31
280
     0
102
RTVSPost2010PropOp31
 70
     1
102
RTVSPost2010Prop32
280
     0
102
RTVSPost2010PropOp32
 70
     1
102
RTVSPost2010Prop33
280
     0
102
RTVSPost2010PropOp33
 70
     1
102
RTVSPost2010Prop34
280
     0
102
RTVSPost2010PropOp34
 70
     1
102
RTVSPost2010Prop35
280
     0
102
RTVSPost2010PropOp35
 70
     1
102
RTVSPost2010Prop36
280
     0
102
RTVSPost2010PropOp36
 70
     1
102
RTVSPost2010Prop37
 90
       50
102
RTVSPost2010PropOp37
 70
     1
102
RTVSPost2010Prop38
140
0.0
102
RTVSPost2010PropOp38
 70
     1
102
RTVSPost2010Prop39
140
1.0
102
RTVSPost2010PropOp39
 70
     1
102
RTVSPost2010Prop40
 90
        0
102
RTVSPost2010PropOp40
 70
     1
102
RTVSPost2010Prop41ColorIndex
 90
       18
102
RTVSPost2010Prop41ColorRGB
 90
        0
102
RTVSPost2010PropOp41
 70
     1
102
RTVSPost2010Prop42
 90
       50
102
RTVSPost2010PropOp42
 70
     1
102
RTVSPost2010Prop43
 90
        3
102
RTVSPost2010PropOp43
 70
     1
102
RTVSPost2010Prop44ColorIndex
 90
        5
102
RTVSPost2010Prop44ColorRGB
 90
      255
102
RTVSPost2010PropOp44
 70
     1
102
RTVSPost2010Prop45
280
     0
102
RTVSPost2010PropOp45
 70
     1
102
RTVSPost2010Prop46
 90
       50
102
RTVSPost2010PropOp46
 70
     1
102
RTVSPost2010Prop47
 90
       50
102
RTVSPost2010PropOp47
 70
     1
102
RTVSPost2010Prop48
 90
       50
102
RTVSPost2010PropOp48
 70
     1
102
RTVSPost2010Prop49
280
     0
102
RTVSPost2010PropOp49
 70
     1
102
RTVSPost2010Prop50
 90
       50
102
RTVSPost2010PropOp50
 70
     1
102
RTVSPost2010Prop51ColorIndex
 90
      256
102
RTVSPost2010Prop51ColorRGB
 90
-16777216
102
RTVSPost2010PropOp51
 70
     0
102
RTVSPost2010Prop52
140
1.0
102
RTVSPost2010PropOp52
 70
     0
102
RTVSPost2010Prop53
 90
        2
102
RTVSPost2010PropOp53
 70
     1
102
RTVSPost2010Prop54
  1
strokes_ogs.tif
102
RTVSPost2010PropOp54
 70
     1
102
RTVSPost2010Prop55
280
     0
102
RTVSPost2010PropOp55
 70
     1
102
RTVSPost2010Prop56
140
1.0
102
RTVSPost2010PropOp56
 70
     1
102
RTVSPost2010Prop57
140
1.0
102
RTVSPost2010PropOp57
 70
     1
  0
XRECORD
  5
224
102
{ACAD_REACTORS
330
223
102
}
330
223
100
AcDbXrecord
280
     1
102
RTVSPropertyOp0
 70
     1
102
RTVSPropertyOp1
 70
     1
102
RTVSPropertyOp2
 70
     1
102
RTVSPropertyOp3
 70
     1
102
RTVSPropertyOp4
 70
     1
102
RTVSPropertyOp5
 70
     1
102
RTVSPropertyOp6
 70
     1
102
RTVSPropertyOp7
 70
     1
102
RTVSPropertyOp8
 70
     1
102
RTVSPropertyOp9
 70
     1
102
RTVSPropertyOp10
 70
     1
102
RTVSPropertyOp11
 70
     1
102
RTVSPropertyOp12
 70
     1
102
RTVSPropertyOp13
 70
     1
102
RTVSPropertyOp14
 70
     1
102
RTVSPropertyOp15
 70
     1
102
RTVSPropertyOp16
 70
     1
102
RTVSPropertyOp17
 70
     1
102
RTVSPropertyOp18
 70
     1
102
RTVSPropertyOp19
 70
     1
102
RTVSPropertyOp20
 70
     1
102
RTVSPropertyOp21
 70
     1
102
RTVSPropertyOp22
 70
     1
102
RTVSPropertyOp23
 70
     1
102
RTVSPropertyOp24
 70
     1
102
RTVSPropertyOp25
 70
     1
102
RTVSPropertyOp26
 70
     1
102
RTVSPropertyOp27
 70
     1
102
RTVSPropertyOp28
 70
     1
102
RTVSPropertyOp29
 70
     1
102
RTVSPropertyOp30
 70
     1
102
RTVSPropertyOp31
 70
     1
102
RTVSPropertyOp32
 70
     1
102
RTVSPropertyOp33
 70
     1
102
RTVSPropertyOp34
 70
     1
102
RTVSPropertyOp35
 70
     1
102
RTVSPropertyOp36
 70
     1
102
RTVSPropertyOp37
 70
     1
102
RTVSPropertyOp38
 70
     1
102
RTVSPropertyOp39
 70
     1
102
RTVSPropertyOp40
 70
     1
102
RTVSPropertyOp41
 70
     1
102
RTVSPropertyOp42
 70
     1
102
RTVSPropertyOp43
 70
     1
102
RTVSPropertyOp44
 70
     1
102
RTVSPropertyOp45
 70
     1
102
RTVSPropertyOp46
 70
     1
102
RTVSPropertyOp47
 70
     1
102
RTVSPropertyOp48
 70
     1
102
RTVSPropertyOp49
 70
     1
102
RTVSPropertyOp50
 70
     1
102
RTVSPropertyOp51
 70
     0
102
RTVSPropertyOp52
 70
     0
102
RTVSPropertyOp53
 70
     1
102
RTVSPropertyOp54
 70
     1
102
RTVSPropertyOp55
 70
     1
102
RTVSPropertyOp56
 70
     1
102
RTVSPropertyOp57
 70
     1
102
RTVSPost2010Prop28
280
     0
102
RTVSPost2010PropOp28
 70
     1
102
RTVSPost2010Prop29
280
     1
102
RTVSPost2010PropOp29
 70
     1
102
RTVSPost2010Prop30
280
     1
102
RTVSPost2010PropOp30
 70
     1
102
RTVSPost2010Prop31
280
     0
102
RTVSPost2010PropOp31
 70
     1
102
RTVSPost2010Prop32
280
     0
102
RTVSPost2010PropOp32
 70
     1
102
RTVSPost2010Prop33
280
     0
102
RTVSPost2010PropOp33
 70
     1
102
RTVSPost2010Prop34
280
     0
102
RTVSPost2010PropOp34
 70
     1
102
RTVSPost2010Prop35
280
     0
102
RTVSPost2010PropOp35
 70
     1
102
RTVSPost2010Prop36
280
     0
102
RTVSPost2010PropOp36
 70
     1
102
RTVSPost2010Prop37
 90
       50
102
RTVSPost2010PropOp37
 70
     1
102
RTVSPost2010Prop38
140
0.0
102
RTVSPost2010PropOp38
 70
     1
102
RTVSPost2010Prop39
140
1.0
102
RTVSPost2010PropOp39
 70
     1
102
RTVSPost2010Prop40
 90
        0
102
RTVSPost2010PropOp40
 70
     1
102
RTVSPost2010Prop41ColorIndex
 90
       18
102
RTVSPost2010Prop41ColorRGB
 90
        0
102
RTVSPost2010PropOp41
 70
     1
102
RTVSPost2010Prop42
 90
       50
102
RTVSPost2010PropOp42
 70
     1
102
RTVSPost2010Prop43
 90
        3
102
RTVSPost2010PropOp43
 70
     1
102
RTVSPost2010Prop44ColorIndex
 90
        5
102
RTVSPost2010Prop44ColorRGB
 90
      255
102
RTVSPost2010PropOp44
 70
     1
102
RTVSPost2010Prop45
280
     0
102
RTVSPost2010PropOp45
 70
     1
102
RTVSPost2010Prop46
 90
       50
102
RTVSPost2010PropOp46
 70
     1
102
RTVSPost2010Prop47
 90
       50
102
RTVSPost2010PropOp47
 70
     1
102
RTVSPost2010Prop48
 90
       50
102
RTVSPost2010PropOp48
 70
     1
102
RTVSPost2010Prop49
280
     0
102
RTVSPost2010PropOp49
 70
     1
102
RTVSPost2010Prop50
 90
       50
102
RTVSPost2010PropOp50
 70
     1
102
RTVSPost2010Prop51ColorIndex
 90
      256
102
RTVSPost2010Prop51ColorRGB
 90
-16777216
102
RTVSPost2010PropOp51
 70
     0
102
RTVSPost2010Prop52
140
1.0
102
RTVSPost2010PropOp52
 70
     0
102
RTVSPost2010Prop53
 90
        2
102
RTVSPost2010PropOp53
 70
     1
102
RTVSPost2010Prop54
  1
strokes_ogs.tif
102
RTVSPost2010PropOp54
 70
     1
102
RTVSPost2010Prop55
280
     0
102
RTVSPost2010PropOp55
 70
     1
102
RTVSPost2010Prop56
140
1.0
102
RTVSPost2010PropOp56
 70
     1
102
RTVSPost2010Prop57
140
1.0
102
RTVSPost2010PropOp57
 70
     1
  0
XRECORD
  5
216
102
{ACAD_REACTORS
330
215
102
}
330
215
100
AcDbXrecord
280
     1
102
RTVSPropertyOp0
 70
     1
102
RTVSPropertyOp1
 70
     1
102
RTVSPropertyOp2
 70
     1
102
RTVSPropertyOp3
 70
     1
102
RTVSPropertyOp4
 70
     1
102
RTVSPropertyOp5
 70
     1
102
RTVSPropertyOp6
 70
     1
102
RTVSPropertyOp7
 70
     1
102
RTVSPropertyOp8
 70
     1
102
RTVSPropertyOp9
 70
     1
102
RTVSPropertyOp10
 70
     1
102
RTVSPropertyOp11
 70
     1
102
RTVSPropertyOp12
 70
     1
102
RTVSPropertyOp13
 70
     1
102
RTVSPropertyOp14
 70
     1
102
RTVSPropertyOp15
 70
     1
102
RTVSPropertyOp16
 70
     1
102
RTVSPropertyOp17
 70
     1
102
RTVSPropertyOp18
 70
     1
102
RTVSPropertyOp19
 70
     1
102
RTVSPropertyOp20
 70
     1
102
RTVSPropertyOp21
 70
     1
102
RTVSPropertyOp22
 70
     1
102
RTVSPropertyOp23
 70
     1
102
RTVSPropertyOp24
 70
     1
102
RTVSPropertyOp25
 70
     1
102
RTVSPropertyOp26
 70
     1
102
RTVSPropertyOp27
 70
     1
102
RTVSPropertyOp28
 70
     1
102
RTVSPropertyOp29
 70
     1
102
RTVSPropertyOp30
 70
     1
102
RTVSPropertyOp31
 70
     1
102
RTVSPropertyOp32
 70
     1
102
RTVSPropertyOp33
 70
     1
102
RTVSPropertyOp34
 70
     1
102
RTVSPropertyOp35
 70
     1
102
RTVSPropertyOp36
 70
     1
102
RTVSPropertyOp37
 70
     1
102
RTVSPropertyOp38
 70
     1
102
RTVSPropertyOp39
 70
     1
102
RTVSPropertyOp40
 70
     1
102
RTVSPropertyOp41
 70
     1
102
RTVSPropertyOp42
 70
     1
102
RTVSPropertyOp43
 70
     1
102
RTVSPropertyOp44
 70
     1
102
RTVSPropertyOp45
 70
     1
102
RTVSPropertyOp46
 70
     1
102
RTVSPropertyOp47
 70
     1
102
RTVSPropertyOp48
 70
     1
102
RTVSPropertyOp49
 70
     1
102
RTVSPropertyOp50
 70
     1
102
RTVSPropertyOp51
 70
     0
102
RTVSPropertyOp52
 70
     0
102
RTVSPropertyOp53
 70
     1
102
RTVSPropertyOp54
 70
     1
102
RTVSPropertyOp55
 70
     1
102
RTVSPropertyOp56
 70
     1
102
RTVSPropertyOp57
 70
     1
102
RTVSPost2010Prop28
280
     0
102
RTVSPost2010PropOp28
 70
     1
102
RTVSPost2010Prop29
280
     1
102
RTVSPost2010PropOp29
 70
     1
102
RTVSPost2010Prop30
280
     1
102
RTVSPost2010PropOp30
 70
     1
102
RTVSPost2010Prop31
280
     0
102
RTVSPost2010PropOp31
 70
     1
102
RTVSPost2010Prop32
280
     0
102
RTVSPost2010PropOp32
 70
     1
102
RTVSPost2010Prop33
280
     0
102
RTVSPost2010PropOp33
 70
     1
102
RTVSPost2010Prop34
280
     0
102
RTVSPost2010PropOp34
 70
     1
102
RTVSPost2010Prop35
280
     0
102
RTVSPost2010PropOp35
 70
     1
102
RTVSPost2010Prop36
280
     0
102
RTVSPost2010PropOp36
 70
     1
102
RTVSPost2010Prop37
 90
       50
102
RTVSPost2010PropOp37
 70
     1
102
RTVSPost2010Prop38
140
0.0
102
RTVSPost2010PropOp38
 70
     1
102
RTVSPost2010Prop39
140
1.0
102
RTVSPost2010PropOp39
 70
     1
102
RTVSPost2010Prop40
 90
        0
102
RTVSPost2010PropOp40
 70
     1
102
RTVSPost2010Prop41ColorIndex
 90
       18
102
RTVSPost2010Prop41ColorRGB
 90
        0
102
RTVSPost2010PropOp41
 70
     1
102
RTVSPost2010Prop42
 90
       50
102
RTVSPost2010PropOp42
 70
     1
102
RTVSPost2010Prop43
 90
        3
102
RTVSPost2010PropOp43
 70
     1
102
RTVSPost2010Prop44ColorIndex
 90
        5
102
RTVSPost2010Prop44ColorRGB
 90
      255
102
RTVSPost2010PropOp44
 70
     1
102
RTVSPost2010Prop45
280
     0
102
RTVSPost2010PropOp45
 70
     1
102
RTVSPost2010Prop46
 90
       50
102
RTVSPost2010PropOp46
 70
     1
102
RTVSPost2010Prop47
 90
       50
102
RTVSPost2010PropOp47
 70
     1
102
RTVSPost2010Prop48
 90
       50
102
RTVSPost2010PropOp48
 70
     1
102
RTVSPost2010Prop49
280
     0
102
RTVSPost2010PropOp49
 70
     1
102
RTVSPost2010Prop50
 90
       50
102
RTVSPost2010PropOp50
 70
     1
102
RTVSPost2010Prop51ColorIndex
 90
      256
102
RTVSPost2010Prop51ColorRGB
 90
-16777216
102
RTVSPost2010PropOp51
 70
     0
102
RTVSPost2010Prop52
140
1.0
102
RTVSPost2010PropOp52
 70
     0
102
RTVSPost2010Prop53
 90
        2
102
RTVSPost2010PropOp53
 70
     1
102
RTVSPost2010Prop54
  1
strokes_ogs.tif
102
RTVSPost2010PropOp54
 70
     1
102
RTVSPost2010Prop55
280
     0
102
RTVSPost2010PropOp55
 70
     1
102
RTVSPost2010Prop56
140
1.0
102
RTVSPost2010PropOp56
 70
     1
102
RTVSPost2010Prop57
140
1.0
102
RTVSPost2010PropOp57
 70
     1
  0
XRECORD
  5
236
102
{ACAD_REACTORS
330
235
102
}
330
235
100
AcDbXrecord
280
     1
102
RTVSPropertyOp0
 70
     1
102
RTVSPropertyOp1
 70
     1
102
RTVSPropertyOp2
 70
     1
102
RTVSPropertyOp3
 70
     1
102
RTVSPropertyOp4
 70
     1
102
RTVSPropertyOp5
 70
     1
102
RTVSPropertyOp6
 70
     1
102
RTVSPropertyOp7
 70
     1
102
RTVSPropertyOp8
 70
     1
102
RTVSPropertyOp9
 70
     1
102
RTVSPropertyOp10
 70
     1
102
RTVSPropertyOp11
 70
     1
102
RTVSPropertyOp12
 70
     1
102
RTVSPropertyOp13
 70
     1
102
RTVSPropertyOp14
 70
     1
102
RTVSPropertyOp15
 70
     1
102
RTVSPropertyOp16
 70
     1
102
RTVSPropertyOp17
 70
     1
102
RTVSPropertyOp18
 70
     1
102
RTVSPropertyOp19
 70
     1
102
RTVSPropertyOp20
 70
     1
102
RTVSPropertyOp21
 70
     1
102
RTVSPropertyOp22
 70
     1
102
RTVSPropertyOp23
 70
     1
102
RTVSPropertyOp24
 70
     1
102
RTVSPropertyOp25
 70
     1
102
RTVSPropertyOp26
 70
     1
102
RTVSPropertyOp27
 70
     1
102
RTVSPropertyOp28
 70
     1
102
RTVSPropertyOp29
 70
     1
102
RTVSPropertyOp30
 70
     1
102
RTVSPropertyOp31
 70
     1
102
RTVSPropertyOp32
 70
     1
102
RTVSPropertyOp33
 70
     1
102
RTVSPropertyOp34
 70
     1
102
RTVSPropertyOp35
 70
     1
102
RTVSPropertyOp36
 70
     1
102
RTVSPropertyOp37
 70
     1
102
RTVSPropertyOp38
 70
     1
102
RTVSPropertyOp39
 70
     1
102
RTVSPropertyOp40
 70
     1
102
RTVSPropertyOp41
 70
     1
102
RTVSPropertyOp42
 70
     1
102
RTVSPropertyOp43
 70
     1
102
RTVSPropertyOp44
 70
     1
102
RTVSPropertyOp45
 70
     1
102
RTVSPropertyOp46
 70
     1
102
RTVSPropertyOp47
 70
     1
102
RTVSPropertyOp48
 70
     1
102
RTVSPropertyOp49
 70
     1
102
RTVSPropertyOp50
 70
     1
102
RTVSPropertyOp51
 70
     0
102
RTVSPropertyOp52
 70
     0
102
RTVSPropertyOp53
 70
     1
102
RTVSPropertyOp54
 70
     1
102
RTVSPropertyOp55
 70
     1
102
RTVSPropertyOp56
 70
     1
102
RTVSPropertyOp57
 70
     1
102
RTVSPost2010Prop28
280
     0
102
RTVSPost2010PropOp28
 70
     1
102
RTVSPost2010Prop29
280
     1
102
RTVSPost2010PropOp29
 70
     1
102
RTVSPost2010Prop30
280
     1
102
RTVSPost2010PropOp30
 70
     1
102
RTVSPost2010Prop31
280
     0
102
RTVSPost2010PropOp31
 70
     1
102
RTVSPost2010Prop32
280
     0
102
RTVSPost2010PropOp32
 70
     1
102
RTVSPost2010Prop33
280
     0
102
RTVSPost2010PropOp33
 70
     1
102
RTVSPost2010Prop34
280
     0
102
RTVSPost2010PropOp34
 70
     1
102
RTVSPost2010Prop35
280
     0
102
RTVSPost2010PropOp35
 70
     1
102
RTVSPost2010Prop36
280
     0
102
RTVSPost2010PropOp36
 70
     1
102
RTVSPost2010Prop37
 90
       50
102
RTVSPost2010PropOp37
 70
     1
102
RTVSPost2010Prop38
140
0.0
102
RTVSPost2010PropOp38
 70
     1
102
RTVSPost2010Prop39
140
1.0
102
RTVSPost2010PropOp39
 70
     1
102
RTVSPost2010Prop40
 90
        0
102
RTVSPost2010PropOp40
 70
     1
102
RTVSPost2010Prop41ColorIndex
 90
       18
102
RTVSPost2010Prop41ColorRGB
 90
        0
102
RTVSPost2010PropOp41
 70
     1
102
RTVSPost2010Prop42
 90
       50
102
RTVSPost2010PropOp42
 70
     1
102
RTVSPost2010Prop43
 90
        3
102
RTVSPost2010PropOp43
 70
     1
102
RTVSPost2010Prop44ColorIndex
 90
        5
102
RTVSPost2010Prop44ColorRGB
 90
      255
102
RTVSPost2010PropOp44
 70
     1
102
RTVSPost2010Prop45
280
     0
102
RTVSPost2010PropOp45
 70
     1
102
RTVSPost2010Prop46
 90
       50
102
RTVSPost2010PropOp46
 70
     1
102
RTVSPost2010Prop47
 90
       50
102
RTVSPost2010PropOp47
 70
     1
102
RTVSPost2010Prop48
 90
       50
102
RTVSPost2010PropOp48
 70
     1
102
RTVSPost2010Prop49
280
     0
102
RTVSPost2010PropOp49
 70
     1
102
RTVSPost2010Prop50
 90
       50
102
RTVSPost2010PropOp50
 70
     1
102
RTVSPost2010Prop51ColorIndex
 90
      256
102
RTVSPost2010Prop51ColorRGB
 90
-16777216
102
RTVSPost2010PropOp51
 70
     0
102
RTVSPost2010Prop52
140
1.0
102
RTVSPost2010PropOp52
 70
     0
102
RTVSPost2010Prop53
 90
        2
102
RTVSPost2010PropOp53
 70
     1
102
RTVSPost2010Prop54
  1
strokes_ogs.tif
102
RTVSPost2010PropOp54
 70
     1
102
RTVSPost2010Prop55
280
     0
102
RTVSPost2010PropOp55
 70
     1
102
RTVSPost2010Prop56
140
1.0
102
RTVSPost2010PropOp56
 70
     1
102
RTVSPost2010Prop57
140
1.0
102
RTVSPost2010PropOp57
 70
     1
  0
ENDSEC
  0
EOF
